.

banners

Tablatura fácil de... Irreal. Sôber.



   Los madrileños Sôber elegían el programa de radio "El vuelo del fénix" para presentar el segundo adelanto de su próximo disco que llevará por titulo  "Vulcano."
  El tema elegido era "Irreal" y en tablaturas fáciles hemos querido hacernos eco de dicha noticia y aprovechar para dejaros unos momentos en tablatura del tema que esperamos como siempre que os guste y disfrutéis.
  Un saludo.
  TabsFácil.






Irreal. Sôber.


1.------------------------------|
2.------------------------------|
3.------------------------------|
4.-7-7--5-5--8-8--5-5-----------|
5.-5-5--3-3--6-6--3-3--5-3-5-3--|
6.------------------------------|

1.------------------------------|
2.------------------------------|
3.------------------------------|
4.-7-7--5-5--8-8--5-5-----------|
5.-5-5--3-3--6-6--3-3--5-3-5-3--|
6.------------------------------|

1.----------10----------12---------|
2.-10h11h10----10h11h10----10h11h10
3.---------------------------------|
4.---------------------------------|
5.---------------------------------|
6.---------------------------------|

1.-13--12-10-12(13)--|
2.-------------------|
3.-------------------|
4.-------------------|
5.-------------------|
6.-------------------|...


(2:22)

1.-----------------------------------|
2.---10-10(11)(10)----5-5(6)(5)--/11-
3.-7---------------/7----------------|
4.-----------------------------------|
5.-----------------------------------|
6.-----------------------------------|

1.-----------------------------------|
2.-10-8-----5/-6-5-3--------8-/10-8-
3.------10-----------5--/10----------|
4.-----------------------------------|
5.-----------------------------------|
6.-----------------------------------|

1.----------------------|
2.-/8-6-5------3-3/-5-3-
3.--------7--5----------|
4.----------------------|
5.----------------------|
6.----------------------|

1.-5h6h5--13--5h6h5h6h5--13--3h5h3h5h3
2.------------------------------------|
3.------------------------------------|
4.------------------------------------|
5.------------------------------------|
6.------------------------------------|

1.-12--3h5h3h5h3--12--1h2h1h2h1--10--|
2.-----------------------------------|
3.-----------------------------------|
4.-----------------------------------|
5.-----------------------------------|
6.-----------------------------------|

1.-1h2h1h2h1--10--0h1h0h1h0--8--0h1h0h1h0
2.--------------------------------------|
3.--------------------------------------|
4.--------------------------------------|
5.--------------------------------------|
6.--------------------------------------|

1.--8/-10-8--|
2.-----------|
3.-----------|
4.-----------|
5.-----------|
6.-----------|

1.-5h6h5--13--5h6h5h6h5--13--3h5h3h5h3
2.------------------------------------|
3.------------------------------------|
4.------------------------------------|
5.------------------------------------|
6.------------------------------------|

1.-12--3h5h3h5h3--12--1h2h1h2h1--10--|
2.-----------------------------------|
3.-----------------------------------|
4.-----------------------------------|
5.-----------------------------------|
6.-----------------------------------|

1.-1h2h1h2h1--10--0h1h0h1h0--8--0h1h0h1h0
2.--------------------------------------|
3.--------------------------------------|
4.--------------------------------------|
5.--------------------------------------|
6.--------------------------------------|

1.--8/-10-8-----|
2.-----------8--|
3.--------------|
4.--------------|
5.--------------|
6.--------------|...




No hay comentarios:

Publicar un comentario