.

banners

Tablatura fácil de... Ghost of you. Lords of Black.




    Otra vez vuelven Lords of Black a Tablaturas fáciles y es que sentimos especial debilidad por esta pedazo de banda, que nos sorprendiera con su álbum debut y que nos confirmo su potencial con su segundo trabajo del que hoy os queremos dejar un pequeño momento en tablatura del tema "Ghost of you" que esperamos como siempre que disfrutéis.
  Un saludo.
  TabsFácil.


Ghost of you. Lords of black.


(1:03)
1.---------------------------------------|
2.---------------------------------------|
3.---5-3-2--------5-3-2--------5-3-2-----|
4.-7-------5-7--7-------5-7--7-------5-7-
5.---------------------------------------|
6.---------------------------------------|...


     (1:15)     (1:21)       (1:27)
1.---------------------------------------|
2.---------------------------------------|
3.---------------------------------------|
4.-----7-----------7----------7-7-7-7-7-7
5.-----5-----------5----------5-5-5-5-5-5
6.---------------------------------------|...


(1:39)Guitarra solista.

1.-/10---8--------------------/10---8----|
2.-----8----/8-10-11-10-8-10------8---/8-|
3.---------------------------------------|
4.---------------------------------------|
5.---------------------------------------|
6.---------------------------------------|


(1:39) Guitarra rítmica.
1.---------------------------------------|
2.---------------------------------------|
3.---------------------------------------|
4.-7--7-7-7--7-7-7--7-7-7-7-7-5----------|
5.-5--5-5-5--5-5-5--5-5-5-5-5-3-8--8-8-8-
6.------------------------------6--6-6-6-


Guitarra solista.
1.------------------------|
2.-10-11-10-8-10-8--------|
3.------------------10-9--|
4.------------------------|
5.------------------------|
6.------------------------|

Guitarra rítmica.
1.-----------------------|
2.-----------------------|
3.-----------------------|
4.-----------------5--7--|
5.-8-8-8-----------3--5--|
6.-6-6-6-----------------|

Guitarra solista.

1.-/10---8--------------------/10---8----|
2.-----8----/8-10-11-10-8-10------8---/8-|
3.---------------------------------------|
4.---------------------------------------|
5.---------------------------------------|
6.---------------------------------------|

Guitarra rítmica.
1.---------------------------------------|
2.---------------------------------------|
3.---------------------------------------|
4.-7--7-7-7--7-7-7--7-7-7-7-7-5----------|
5.-5--5-5-5--5-5-5--5-5-5-5-5-3-8--8-8-8-
6.------------------------------6--6-6-6-

Guitarra solista.

1.------------------------/10-|
2.-10-11-10-8-10-8------------|
3.------------------10-9------|
4.----------------------------|
5.----------------------------|
6.----------------------------|


Guitarra rítmica.
1.-----------------------|
2.-----------------------|
3.-----------------------|
4.-----------------5--7--|
5.-8-8-8-----------3--5--|
6.-6-6-6-----------------|...



No hay comentarios:

Publicar un comentario en la entrada