.

banners

Tablatura fácil de... En la boca no. Bürdel King.


  "En la boca no" es el segundo adelanto del próximo e inminente trabajo de los irreverentes Bürdel King. Un tema que nos presentarán junto a su video clip el próximo 5 de Octubre pero, que ya pueden disfrutar los que no puedan esperar, mediante las plataformas digitales.
  Desde TabsFácil, te ofrecemos  en primicia unos momentos en tablatura del tema para que los disfrutes con tu guitarra.
  Un saludo.
  TabsFácil.


                                                      
                                     





En la boca no. Bürdel King.


1.-----------------------------|
2.-----------------------------|
3.-----------------------------|
4.----------------------3----5-
5.---5------5------5----1----3-
6.---3------3------3-----------|

1.--------------------------------------|
2.--------------------------------------|
3.--------------------------------------|
4.----5-3-2----5-3-2-----5-3-2----------|
5.-5----------------------------3h4h3h1-
6.-3---------3--------3-----------------|

1.--------------------------------------|
2.--------------------------------------|
3.---------------------------------3--3-
4.----------------5-3-2-----5-3-2--3--3-
5.-1-3h4h3h1--5-------------------------|
6.------------3----------3--------------|

1.----------------|
2.----------------|
3.-3-3--5--5--5-3-
4.-3-3--5--5--5-3-
5.----------------|
6.----------------|

1.--------------------------------------|
2.--------------------------------------|
3.--------------------------------------|
4.----5-3-2----5-3-2-----5-3-2----------|
5.-5----------------------------3h4h3h1-
6.-3---------3--------3-----------------|

1.--------------------------------------|
2.--------------------------------------|
3.---------------------------------3--3-
4.----------------5-3-2-----5-3-2--3--3-
5.-1-3h4h3h1--5-------------------------|
6.------------3----------3--------------|

1.--------------------------------|
2.--------------------------------|
3.-3-3--5--5--5-3-----------------|
4.-3-3--5--5--5-3-----------------|
5.------------------------1--3--4-|
6.------------------1--3----------|


1.--------------------------------------|
2.--------------------------------------|
3.--------------------------------------|
4.------------------------7-------------|
5.-5----------------------5--5-5--5-5---|
6.-3--3-3--3-3--3-1--3-1----------------|

1.--------------|
2.--------------|
3.--------------|
4.--------------|
5.-5-3--5-3---5-|
6.------------3-|...



(1:35) "...No, no, en la boca no..."


1.----------------------------------|
2.----------------------------------|
3.----------------------------------|
4.--------5-------7-------3-------5-
5.-3------3-------5-------1-------3-
6.-1--------------------------------|...


(1:53)


1.--------5-8-5-------------8-----------|
2.-/6---8-------8-6-5---6-8---8-6-5-6---|
3.----5---------------5---------------7-|
4.--------------------------------------|
5.--------------------------------------|
6.--------------------------------------|

1.------8----------------------------------|
2.-8-10---10-8----------------8/10\8------8
3.--------------10-10--7--10---------10-9--|
4.-----------------------------------------|
5.-----------------------------------------|
6.-----------------------------------------|

1.--------5-8-5-------------8-----------|
2.-/6---8-------8-6-5---6-8---8-6-5-6---|
3.----5---------------5---------------7-|
4.--------------------------------------|
5.--------------------------------------|
6.--------------------------------------|

1.------8------------------------------------|
2.-8-10---10-8---------------8/10\8------8----
3.--------------10-10-7-10---------10-9---5-7|
4.-------------------------------------------|
5.-------------------------------------------|
6.-------------------------------------------|


(2:30)


1.----------------------------------------|
2.-----------------------------3----------|
3.-3-3-----3-3-----3-3-----3-3---5-5------|
4.-----3-3-----3-3-----3-3-----------3-3--|
5.----------------------------------------|
6.----------------------------------------|

1.----------------------------------------|
2.---------------------4-3-3--------------|
3.-5-5-----5-5-----5-5------------7-7-----|
4.-----3-3-----3-3------------5-5-----5-5-
5.----------------------------------------|
6.----------------------------------------|

1.----------------------------------------|
2.-------------6-4-4----------------------|
3.-7-7-----7-7-------7-7-5-3--7-7-5-5-3---|
4.-----5-5------------------------------7-|
5.----------------------------------------|
6.----------------------------------------|...

No hay comentarios:

Publicar un comentario