.

banners

Tablatura fácil de... 100 dardos. Zenobia.


  Zenobia vuelven a la actualidad con la pronta salida a la calle de su nuevo trabajo "Alma de fuego II," la continuación o segunda parte de aquel "Alma de fuego" que sacaran por el 2009 y el que fuera y siga siendo posiblemente el álbum más emblemático de la banda riojana.
  Lo que si es cierto es que desde entonces la banda no ha hecho otra cosa más que crecer y se han ido colocando el listón cada vez más alto con discos como "Armageddon" o "Supernova."
  Hoy en tablaturas fáciles queremos dejarte unos momentos en tablatura del tema que han elegido como adelanto del disco, que lleva por título "100 dardos" y que también puedes aprovechar y escuchar si aún no lo has hecho.
  Un saludo.
  TabsFácil.






                       
                  

100 dardos. Zenobia.


(0:22)   "Sigo buscando la forma...

1.-------------------------------------|
2.-------------------------------------|
3.-------------------------------------|
4.-------------------------------------|
5.-------------0----------1----------3-|
6.-1--1-1--1-1---1-1--1-1---1-1--1-1---|

1.-------------------------------------|
2.-------------------------------------|
3.-------------------------------------|
4.-------------------------------------|
5.------------------------0-----------1
6.-1-1--1-1--1--1-1---1-1---1-1---1-1--|


1.--------------------------|
2.--------------------------|
3.--------------------------|
4.--------------------------|
5.----------3---------------|
6.-1-1--1-1---1--1-1--1-1---|...


(0:37)

1.-------------------------------------|
2.-------------------------------------|
3.-------------------------------------|
4.-------------------------------------|
5.-------------0----------1----------3-|
6.-1--1-1--1-1---1-1--1-1---1-1--1-1---|

1.-------------------------------------|
2.-------------------------------------|
3.-------------------------------------|
4.-------------------------------------|
5.-----------5--5-5--5-5--5--5-5--5-5--|
6.-1-1--1-1----------------------------|

1.----------------------------|
2.----------------------------|
3.---------------------2-2-2--|
4.-------3-3-3--5-5-5---------|
5.-5-5-5----------------------|
6.----------------------------|


(0:44)

1.-------------------------------------|
2.-------------------------------------|
3.-3-2-3-------------------3-2-3-5-3-2-
4.-3-2-3-------------------3-2-3-5-3-2-
5.-------------------------------------|
6.--------3-3-3-3-3-3-3-3--------------|

1.-------------------------------------|
2.-------------------------------------|
3.-3-2-3------------------------3-2-3--|
4.-3-2-3----------------7-------3-2-3--|
5.----------------------5---4----------|
6.--------3-3-3-3-3-3-------2----------|

1.-------------------------------------|
2.-------------------------------------|
3.------------------3-2-3-5-3-2---3-2--|
4.------------------3-2-3-5-3-2---3-2--|
5.-------------------------------------|
6.-3-3-3-3-3-3-3-3---------------------|

1.----------------------|
2.----------------------|
3.----------------------|
4.----------------4---7-
5.-5--5-5--5-5-5------5-
6.----------------------|...


(1:26)

1.-------------------------------------|
2.-------------------------------------|
3.-------------------------------------|
4.-------------------------------------|
5.-------------0----------1----------3-|
6.-1--1-1--1-1---1-1--1-1---1-1--1-1---|

1.-------------------------------------|
2.-------------------------------------|
3.-------------------------------------|
4.-------------------------------------|
5.-----------5--5-5--5-5--5--5-5--5-5--|
6.-1-1--1-1----------------------------|

1.----------------------------|
2.----------------------------|
3.---------------------2-2-2--|
4.-------3-3-3--5-5-5---------|
5.-5-5-5----------------------|
6.----------------------------|


(1:33)

1.-------------------------------------|
2.-------------------------------------|
3.-3-2-3-------------------3-2-3-5-3-2-
4.-3-2-3-------------------3-2-3-5-3-2-
5.-------------------------------------|
6.--------3-3-3-3-3-3-3-3--------------|

1.-------------------------------------|
2.-------------------------------------|
3.-3-2-3------------------------3-2-3--|
4.-3-2-3----------------7-------3-2-3--|
5.----------------------5---4----------|
6.--------3-3-3-3-3-3-------2----------|

1.-------------------------------------|
2.-------------------------------------|
3.------------------3-2-3-5-3-2---3-2--|
4.------------------3-2-3-5-3-2---3-2--|
5.-------------------------------------|
6.-3-3-3-3-3-3-3-3---------------------|

1.----------------------|
2.----------------------|
3.----------------------|
4.----------------4---7-
5.-5--5-5--5-5-5------5-
6.----------------------|...


(2:03)

1.-12-//---3-3-3-3-3-3--5-3-2--2-2-2-2-|
2.-------------------------------------|
3.-------------------------------------|
4.-------------------------------------|
5.-------------------------------------|
6.-------------------------------------|

1.-3-5-6-3--6-6-6-6--8-6-5--5-5-5-5--6-8
2.-------------------------------------|
3.-------------------------------------|
4.-------------------------------------|
5.-------------------------------------|
6.-------------------------------------|

1.-10-------14-11----14-11----14-11----|
2.----10-/--------13-------13-------13-
3.-------------------------------------|
4.-------------------------------------|
5.-------------------------------------|
6.-------------------------------------|

1.-------------11----------|
2.-10----10-13----13-10----|
3.----11----------------11-
4.-------------------------|
5.-------------------------|
6.-------------------------|...





No hay comentarios:

Publicar un comentario en la entrada