.

banners

La escala pentatónica.

   
escala_tablaturasfaciles

Resumiendo mucho, podríamos diferenciar dos partes en el aprendizaje de la guitarra, la primera, los acordes con los que vamos a crear ritmos y la segunda, las escalas con las que crearemos los solos.

   Escalas hay muchas, pero sin duda, la más práctica y fácil de aprender para empezar es la escala pentatónica menor.

  La escala pentatónica mayor suena algo más alegre o country y es la menor las más usada en la música rock.





escala_pentatonica
    En el diagrama, los círculos en blanco representan la nota que da nombre a la escala.
    Si te fijas, tanto la primera posición como las otras dos posiciones que vamos a estudiar aquí, son patrones que podemos desplazar por todo el mástil de la guitarra.

  La escala y la posición será la misma pero variará la tonalidad y la tónica o nota que dé nombre a la escala.


  En el ejercicio en tablatura podrás ver que hemos interpretado una escala pentatónica menor de La.
  tú puedes desplazarla por cualquiera de las notas de la 6ª cuerda para ejecutar otra escala pentatonica menor, pero en ese caso, de la nota que hayas elegido.





Escala pentatonica menor de La en su primera posición.



1.---------------------------------------5---8--
2.--------------------------------5---8---------
3.------------------------5----7----------------
4.-----------------5---7------------------------
5.---------5---7--------------------------------
6.--5---8---------------------------------------



tablaturasfaciles_pentatonica


Escala pentatonica menor de La en su segunda posición.


1.-------------------------------------------8---10--
2.----------------------------------8----10----------
3.---------------------------7---9-------------------
4.-------------------7---10--------------------------
5.----------7---10-----------------------------------
6.--8---10-------------------------------------------



Escala pentatonica menor de La en su tercera posición.



1.-----------------------------------------------10----12-
2.--------------------------------------10---13-----------
3.------------------------------9---12--------------------
4.---------------------10---12----------------------------
5.------------10---12-------------------------------------
6.--10----12----------------------------------------------



tablaturas_faciles_pentatonica





No hay comentarios:

Publicar un comentario