.

banners

Acordes de... Mi color preferido eres tú. Bürdel King.


acordes_tabs_facil_bürdel_king

   Ya está en la calle, ya lo pueden disfrutar todos los seguidores de la banda, que no son pocos. El segundo álbum de la banda Bürdel King "Si dios está en todas partes..." Un álbum que se hizo esperar primero, por que no deja de ser un proyecto alternativo de algunos componentes de Mägo de Oz y son los Mägo los que tienen prioridad y segundo, por censuras varias a la primera portada elegida para el plástico...
  Sea como fuere en tablaturas fáciles queremos compartir contigo los acordes para guitarra de uno de los cortes del trabajo, en concreto del 4º  "Mi color preferido eres tú" que esperamos que disfrutéis.
  Un saludo.
  TabsFácil.






Mi color preferido eres tú. Bürdel King.


1.-6-6-6--8-9---------------4-6-----6-|
2.------------9-6----/7-7-7-----6-----|
3.----------------6-------------------|
4.------------------------------------|
5.------------------------------------|
6.------------------------------------|

1.-6-6--8-9--13-11-9-9---13-11--13-11-/16
2.---------------------9----------------|
3.--------------------------------------|
4.--------------------------------------|
5.--------------------------------------|
6.--------------------------------------|

1.-------------------------------------|
2.-------------------------------------|
3.-3-3-3--5-6--------------1-3----3-3-3
4.------------6-3----4-4-4-----3-------|
5.----------------4--------------------|
6.-------------------------------------|

1.----------------------------------4-|
2.-----4-/6-4--------4-/6-4--4-/6-4---|
3.-5-6--------6-6---------------------|
4.----------------6-------------------|
5.------------------------------------|
6.------------------------------------|



La#m              Sol#   Fa#            Do#      Sol#
Desde que llegaste a mi la luna me cosió

La#m                Sol#             Fa#             Sol#
una mueca de calma, una sonrisa, una canción.

La#m              Sol#   Fa#      Do#   Sol#
desde que te conocí el sol se derritió

La#m                Sol#             Fa#             Sol#
hoy mi corazón es perfecto por que en él vives tú.

      Fa#            Do#       La#m         Sol#
Ohh Valía la pena, ohh llegar hasta aquí

Fa#                     Do#          Si
a veces ocurre que eres feliz.

La#m         Fam            Fa#               Do#  Sol#
Mi color preferido es el de tus ojos al sol

La#                     Do#          Sol#               Re#
Mi lugar favorito será oír de noche tu respiración

La#m         Fam            Fa#               Do#  Sol#
Mi hogar elegido es entre tus brazos amor

La#                     Do#          Sol#               Re#
Mi color preferido eres tú, sólo tú, siempre eres tú.


(1:39)

1.------------------------------------|
2.------------------------------------|
3.-/3-3---3--5h6h5---5--/6-5--3h5h3-/1
4.------3----------3------------------|
5.------------------------------------|
6.------------------------------------|

1.--------------------|
2.--------------------|
3.-------1-3------1-1-
4.-1-3-4-----3--4-----|
5.--------------------|
6.--------------------|...


La#m                      Sol#          Fa#         Do#  Sol#
Desde que yo te encontré ya nunca me perdí

La#m                        Sol#
no pido estar en tus sueños

Fa#                                      Sol#
pido estar al lado si los cumples tú.

   Fa#            Do#       La#m         Sol#
Ohh Valía la pena, ohh llegar hasta aquí

Fa#                     Do#          Si
a veces ocurre que eres feliz.

La#m         Fam            Fa#               Do#  Sol#
Mi color preferido es el de tus ojos al sol

La#                     Do#          Sol#               Re#
Mi lugar favorito será oír de noche tu respiración

La#m         Fam            Fa#               Do#  Sol#
Mi hogar elegido es entre tus brazos amor

La#                     Do#          Sol#               Re#
Mi color preferido eres tú, sólo tú, siempre eres tú...













No hay comentarios:

Publicar un comentario