.

banners

Acordes de... I can't stop thinking about you. Sting.




 "57th & 9th" es el título elegido para el regreso de un grande dentro de la música. Si, Sting regresa al panorama musical y aunque la salida del disco será para el 11 de Octubre, ya hemos podido escuchar adelanto y ver video clip de uno de los temas que formarán parte del disco. 
  "I can't stop thinking about you" lleva por título el tema adelanto y si, en tablaturas fáciles tenemos unos acordes para guitarra, para los que os apetezca disfrutar y aprender con un grande, nada más y nada menos que Sting.
  Un saludo.
  TabsFácil.






I can't stop thinking about you. Sting.


1.---6-------6------6----6---9-6-|
2.-----9-------9------9----9-----|
3.-6------6------6---------------|
4.-------------------------------|
5.-------------------------------|
6.-------------------------------|

1.---6------6------9-9-8---6---|
2.-----9------9----------9---9-|
3.-6-----6------6--------------|
4.-----------------------------|
5.-----------------------------|
6.-----------------------------|

1.---6-------6------6----6---9-6-|
2.-----9-------9------9----9-----|
3.-6------6------6---------------|
4.-------------------------------|
5.-------------------------------|
6.-------------------------------|

1.---6------6------9-9-8---6------|
2.-----9------9----------9---9---0|
3.-6-----6------6----------------2|
4.-------------------------------1|
5.-------------------------------2|
6.--------------------------------|


La#m     Fa#                 Do#
White page, an empty field of snow

La#m  Fa#           Do#
my room is 25 below

La#m            Fa#           Do#
this cold man chasing ghosts

    La#m             Fa#                 Do#
a road lies underneath a buried boat

La#m                Fa#        Do#
dogs search the under forest

La#m               Fa#       Do#
we scour the empty streets

     La#m     Fa#                 Do#
the fact remains until we find you

La#m        Fa#      Do#
our lives are incomplete

Re#m                 Si       
Do i hear laughters through a veil of

Do#
snow and ice?

Re#m                 Si   
where could you be on such a lonely

Do#
winter's night?

Do#m               La             Mi
I can't stop thinking about you

Do#m               La             Mi
I can't stop wanting you this way

Do#m               La             Mi
I can't face dreaming without you

Do#m               La                 Mi
that's why I'm searching night and day

Do#m               La        Mi
this heart's a lonely hunter

Do#m               La         Mi
these hands are frozen fists

Do#m               La             Mi
I can't stop thinking about you

Do#m         La       Mi
I don't care if you exist...

No hay comentarios:

Publicar un comentario