.

banners

Tabsfácil de...Paz. Saurom.


  Para mí, Saurom por la calidad de sus temas, etc., etc., deberían de tener muchísimo más reconocimiento del que tienen, pero muchísimo más.
 Está claro que el mundo de la música es así de injusto y no podemos hacer mucho más...
  Buenísimo tema adelanto de lo que sería su último disco, 8º si no me equivoco, del que os dejo unos momentos en tablatura que espero que os gusten y los disfrutéis.
   Un saludo.
   TabsFácil.



Paz. Saurom.


(0:25)
1.---------------------------------------------
2.---------------------------------------------
3.-2-------------------------------------------
4.-0---3-3---------5-5---7--------10-10--------
5.-----1-1---3-3---3-3---5---8-8---8--8--10-10-
6.-----------1-1-------------6-6----------8--8-

1.----------------------------------------------
2.----------------------------------------------
3.-2--------------------------------------------
4.-0---3-3---------5-5---7---------10-10--------
5.-----1-1---3-3---3-3---5----8-8---8--8--10-10-
6.-----------1-1--------------6-6----------8--8-


1.---------------------------------------------
2.---------------------------------------------
3.-7-7-7---------7-7----------7-7---------3--5-
4.-7-7-7---------7-7----------7-7---------3--5-
5.-5-5-5-8-7-5---5-5-10-8-7---5-5-5-8-7---1--3-
6.---------------------------------------------

1.---------------------------------------------
2.---------------------------------------------
3.-7-7-7--------7-7---------7-7--------3--5--7-
4.-7-7-7--------7-7---------7-7--------3--5--7-
5.-5-5-5-8-7-5--5-5-10-8-7--5-5-5-8-7--1--3--5-
6.---------------------------------------------...

No hay comentarios:

Publicar un comentario en la entrada