.

banners

Tabs fácil de...Pride in prejudice. Slayer.


  El tercer sencillo del exitoso último álbum de Slayer ya está en la calle, y con video-clip incluido. Se llama "Pride in Prejudice," y si, es el último corte del disco. 
  Como no podía ser de otra manera ya puedes disfrutar de un momento en tablatura en ésta tu página web de tabs para guitarra.
  Un saludo.
  TabsFácil.





Pride in prejudice. Slayer.


1.---------------------------------------|
2.---------------------------------------|
3.-------------------------2-3-3--3-2----|
4.-4----0-1-1--1-0-4--4-4--0-1-1--1-0--4-
5.-2--2------------2--2-2--------------2-
6.---------------------------------------|

1.---------------------------------------|
2.---------------------------------------|
3.------2-3-3--3-2----------2-3-2--------|
4.-4-4--0-1-1--1-0--4--4-4--0-1-0--5-4-4-
5.-2-2--------------2--2-2---------3-2-2-
6.---------------------------------------|

1.------------------------------------|
2.------------------------------------|
3.-------------2-3-3--3-2-------------|
4.--------4-4--0-1-1--1-0--4-4--------
5.-2-5-4--2-2--------------2-2--2-5-4-
6.------------------------------------|...


No hay comentarios:

Publicar un comentario en la entrada