.

banners

Tabs fácil de...Moth into flame. Metallica.


  Poco a poco nos van desgranando los de San Francisco en forma de adelanto lo que será su próximo y esperado disco "Hardwired... To self-destruct," que verá la luz el 18 de Noviembre para todo el mundo. 
  Un álbum que vendrá en formato doble con una duración de 80 minutos y un total de 12 canciones y del que de momento además del tema "Hardwired," ya podemos disfrutar de "Moth into flame."
  Cómo no podía ser de otra manera, en Tabs Fácil ya puedes disfrutar de unos momentos en tablatura, así que, ya sabes a hacer más amena la espera de la salida del nuevo trabajo tocando la guitarra con Metallica.
  Un saludo.
  TabsFácil.







Moth into flame. Metallica.



1.---------------------------------------|
2.------------------8--------------------|
3.-/9-10-9-7-----/9---9-7------/9-10-9-7-|
4.---------------------------------------|
5.------------2------------2-2-----------|
6.------------0------------0-0-----------|

1.---------------------------------------|
2.-------8-------------------------------|
3.----/9---9-7-------/9-10-9-7-----------|
4.---------------------------------------|
5.-2------------2-2-------------/7-8-7---|
6.-0------------0-0----------------------|

1.---------------------------------------|
2.---------------------------------------|
3.---------------------------------------|
4.-----5---------------5---9--7----------|
5.-5/7---7-5/7-8-7-5/7-----7--5----------|
6.--------------------------------0-0-0--|

1.---------------------------------------|
2.---------------------------------------|
3.---------------------------------------|
4.---------------------------------------|
5.---------------------------------------|
6.-0-0--0-0-0--0-0-0--0-0--0-0-0--0-0-0--|

1.---------------------------------------|
2.---------------------------------------|
3.---------------------------------------|
4.---------------------------------------|
5.---------------------------------------|
6.-0-0-0--0-0--0-0-0--0-0-0--0-0--0-0-0--|

1.---------------------------------------|
2.---------------------------------------|
3.---------------------------------------|
4.---------------------------------------|
5.---------------------------------------|
6.-0-0-0--0-0-0--0-0--0-0-0--0-0-0--0-0--|

1.---------------------------------------|
2.---------------------------------------|
3.---------------------------------------|
4.---------------------------------------|
5.---------------------------------------|
6.-0-0-0--0-0-0--0-0-0--0-0--0-0-0--0-0-0

1.---------------------------------------|
2.---------------------------------------|
3.---------------------------------------|
4.-------------7-------------------------|
5.-----------8---8-7---------------------|
6.-0-0---5/6----------0-0--0-1-1-0--0-0--|

1.-------------------------|
2.-------------------------|
3.-------------------------|
4.-------------------------|
5.-------------------------|
6.-0-1-1-0--0-0--0-1-1-0---|...


(1:27)

1.---------------------------------------|
2.------8-6-5---5-6-5-------8-6-5---5-6--|
3.----5-------7-----------5-------7------|
4.-/7------------------/7----------------|
5.---------------------------------------|
6.---------------------------------------|

1.---------------------/10---10----10----10---|
2.------8-6-5---5-6-5------8----10----12----10
3.----5-------7-------------------------------|
4.-/7-----------------------------------------|
5.--------------------------------------------|
6.--------------------------------------------|


(1:37)

1.---------------------------------------|
2.---------------------------------------|
3.---------------------------------------|
4.----2----------------------------------|
5.-/2---3-0--0-0-0-0--0-0-0-0--0-0-0-0---|
6.---------------------------------------|

1.---------------------------------------|
2.---------------------------------------|
3.---------------------------------------|
4.----2----------------------------------|
5.-/2---3--------------------------------|
6.--------3--3-3-3-3--3-3-3-3--3-3-3-3---|

1.---------------------------------------|
2.---------------------------------------|
3.---------------------------------------|
4.----2----------------------------------|
5.-/2---3-0--0-0-0-0--0-0-0-0--0-0-0-0---|
6.---------------------------------------|

1.---------------------------------------|
2.---------------------------------------|
3.---------------------------------------|
4.----2----------------------------------|
5.-/2---3--------------------------------|
6.--------3--3-3-3-3--3-3-3-3--3-3-3-3---|


1.-----------|
2.-----------|
3.---------4-
4.----3-0--2-
5.-/2--------|
6.-----------|...



No hay comentarios:

Publicar un comentario