.

banners

Tabs fácil de...Edge of a dream. Firewind.


   En el 2012 lanzaba su séptimo disco la banda liderada por el guitarrista Gus G. Firewind que llevaba por título "Few against many." De ese disco recuperamos una balada impresionante en la que colaboraban miembros de Apocalyptica, su título "Edge of a dream."
  Desde tablaturas fáciles esperamos que os guste y disfrutéis.
  Un saludo.
  TabsFácil.





Edge of a dream. Firewind.


(1:52)
1.---------------------------------------------------
2.---------------------------------------------------
3.-------8(10)(8)-8/-------8(10)10(12)(10)-8-----8---
4.-5h6h5-------------5h6h5-------------------/10---10
5.---------------------------------------------------
6.---------------------------------------------------

1.--------------------------------------13(15)(13)-11
2.---------------11-----11(13)-13-11-----------------
3.-8(10)-10--/12----12---------------12--------------
4.---------------------------------------------------
5.---------------------------------------------------
6.---------------------------------------------------

1.---------------------11h13h15(16)--17(18)-15/------
2.-13-11------11h13h15-------------------------------
3.-------12------------------------------------------
4.---------------------------------------------------
5.---------------------------------------------------
6.---------------------------------------------------


(3:31)
1.-----------------------------------------4-4-4-3-4-
2.-11(13)-13-13-11---------------------4h6-----------
3.-----------------12-10-10(12)-8--5h7---------------
4.---------------------------------------------------
5.---------------------------------------------------
6.---------------------------------------------------

1.-4-3-4-4-4-4-4/-----------------------------------
2.--------------------------------------------------
3.-----------------7h8h7h8h7--8h10h8h10h8--10h12h10h
4.--------------------------------------------------
5.--------------------------------------------------
6.--------------------------------------------------

1.-------------------------------------------------
2.-------------------------------------------------
3.-12h10--12h13h12h13h12--13h15h13h15h13--15h17h15h
4.--------------------------------------------------
5.--------------------------------------------------
6.--------------------------------------------------

1.-------------------------------------------16-----
2.-----------------------18-16-18-20-16-18-20--18-20
3.-17h15--19-20-19-17-20----------------------------
4.--------------------------------------------------
5.--------------------------------------------------
6.--------------------------------------------------

1.-------15-16-15--------------------------------18
2.-16-18----------18-16--18-20-18-------16-18(19)--
3.--------------------------------20-19------------
4.-------------------------------------------------
5.-------------------------------------------------
6.-------------------------------------------------

1.-----------------19(20)(20)(19)-22(23)(22)-19---/20
2.-18-18(19)(18)-16----------------------------20----
3.---------------------------------------------------
4.---------------------------------------------------
5.---------------------------------------------------
6.---------------------------------------------------

No hay comentarios:

Publicar un comentario