.

banners

Tabs fácil de...Cirice. Ghost.


  Perteneciente a su último trabajo, "Meliora" de los suecos Ghost, os queremos dejar unos momentos en tablatura pertenecientes al tema con el que presentaron el disco "Cirice."
  "Meliora"" un disco con el que han cosechado multitud de éxitos y premios, consagrándose como una de las bandas del metal actual, Ghost y su tema "Cirice" en tabsfáciles.
  Un saludo.
  TabsFácil.





Cirice. Ghost.


1.----------------------------------
2.----------------------------------
3.-------2---1----------------------
4.-----3---3---2-3-2-1--------------
5.---5------------------------8-7-5-
6.----------------------6-5-4-------

1.----------------------------------
2.----------------------------------
3.----2---1-----------------------2-
4.--3---3---2-3-2-1-------------3---
5.------------------------8-7-5-----
6.------------------6-5-4-----------

1.---------------------------
2.---------------------------
3.----1----------------------
4.--3---2-3-2-1--------------
5.---------------------8-7-5-
6.---------------6-5-4----...

(0:48)
1.------------------------------------
2.------------------------------------
3.------------------------------------
4.------7---6----------------10--9--7-
5.---/5---5---5-/8-7-6--------8--7--5-
6.---------------------6-5-4---------...

No hay comentarios:

Publicar un comentario