.

banners

Tabs fácil de... Waste a moment. Kings of leon.


                   

   La banda de rock estadounidense Kings of leon lanza el primer sencillo "Waste a moment" de su próximo disco "Walls" que saldrá a mediados de Octubre, después de un parón de unos 3 años desde su último trabajo.
  En Tablaturaras fáciles queremos compartir contigo unos momentos en tablatura del tema, en concreto del solo de guitarra que esparmos que os guste y disfrutéis.
  Un saludo.
  TabsFácil.

                             




Waste a moment. Kings of leon.



(2:08)

1.--------------------------------------|
2.-7---7-----7--------7----------7------|
3.---9---7----9--9-7----7----------9(11)|
4.-------------------------11-9---------|
5.--------------------------------------|
6.--------------------------------------|

1.--------------------------------------|
2.-7-7----7-7----7-7--------------------|
3.-----9------7------9--9--7-7-7-7-7-7-7
4.--------------------------------------|
5.--------------------------------------|
6.--------------------------------------|

1.--------------------------------------|
2.----7---7-7----7----------7-7---------|
3.------9-----7----7------------9(11)---|
4.-------------------11-9---------------|
5.--------------------------------------|
6.--------------------------------------|...







No hay comentarios:

Publicar un comentario en la entrada