.

banners

Tabs fácil de... ¡Vive! Saurom.


   Dentro de lo que sería su octavo álbum, que era publicado en Septiembre del 2015 y llevaba por nombre "Sueños", estaba incluido el tema  "¡Vive!" 
   Os quiero dejar como siempre hago, unos momentos en tablatura del tema que, espero que os guste y disfrutéis.
  Un saludo.
  TabsFácil.





¡Vive! Saurom.


   (0:09)
1.-------------------------------------
2.-------------------------------------
3.-------------------------------------
4.------2-2--2-2--2-2----------7-7-7-7-
5.---//-0-0--0-0--0-0-----5-7--5-5-5-5-
6.---------------------/5--------------

1.-------------------------------------
2.-------------------------------------
3.-------------------------------------
4.--6-6-6-6--7-7-7-7-----------7-7-7-7-
5.--4-4-4-4--5-5-5-5--5-5-5-5--5-5-5-5-
6.--------------------3-3-3-3----------

1.---------------------------
2.---------------------------
3.---------------------------
4.--6-6-6-6------------------
5.--4-4-4-4--7-7-7-7-----5-7-
6.-----------5-5-5-5--/5-----...


(0:19) "Dime lo que harías..."
1.--------------------------------------
2.--------------------------------------
3.--------------------------------------
4.--4-4------------------7-7--6-6----4-4
5.--2-2----4-4----5-5----5-5--4-4----2-2
6.---------2-2----3-3-------------------

1.---------------------------
2.---------------------------
3.---------------------------
4.----------------7-7----6-6-
5.--4-4----5-5----5-5----4-4-
6.--2-2----3-3------------...

(0:47) "Vive, que este libro..."
1.-------------------------------------
2.-------------------------------------
3.-------------------------------------
4.--7-7-7-7-----------7-7-7-7----------
5.--5-5-5-5--5-5-5-5--5-5-5-5--7-7-7-7-
6.-----------3-3-3-3-----------5-5-5-5-

1.---------------------------------------
2.---------------------------------------
3.---------------------------------------
4.--7-7-7-7------------------------------
5.--5-5-5-5--5-5-5-5---7-7-7-7--7-7---5-7
6.-----------3-3-3-3---5-5-5-5--5-5-/5--...

No hay comentarios:

Publicar un comentario en la entrada