.

banners

Tabs fácil de... Revolution radio. Green Day.


  Con el nombre que llevará su próximo disco que, estará disponible a partir del próximo 7 de Octubre, Green Day nos adelantan nuevo tema "Revolution Radio."
  Con este disco la banda regresa al panorama musical después de cuatro años de sequía, y como no podía ser de otra manera en Tabs fáciles os queremos dejar unos momentos en tablatura del lema que esperamos que os gusten y disfrutéis.
  Un saludo.
  TabsFácil.




Revolution Radio. Green Day.


1.-/5-5------/5-5--------5---7-5------|
2.------5-5-------5-6--6---6-----5-5--|
3.------------------------------------|
4.------------------------------------|
5.------------------------------------|
6.------------------------------------|

1.-/5-5------/5-5--------5---7-5------|
2.------5-5-------5-6--6---6-----5-5--|
3.------------------------------------|
4.------------------------------------|
5.------------------------------------|
6.------------------------------------|

1.-/5-5------/5-5--------5---7-5------|
2.------5-5-------5-6--6---6-----5-5--|
3.------------------------------------|
4.------------------------------------|
5.------------------------------------|
6.------------------------------------|

1.-/5-5------/5-5--------5---7-5------|
2.------5-5-------5-6--6---6-----5-5--|
3.------------------------------------|
4.------------------------------------|
5.------------------------------------|
6.------------------------------------|

(0:10)
1.------------------------------------|
2.------------------------------------|
3.------------------------------------|
4.-------------9-10--10-10-10-10-10-10
5.-7--7---7-7--7--8---8--8--8--8--8--8
6.-5--5---5-5-------------------------|

1.------------------------------------|
2.------------------------------------|
3.------------------------------------|
4.-------------9-10--10-10-10-10-10-10
5.-7--7---7-7--7--8---8--8--8--8--8--8
6.-5--5---5-5-------------------------|

1.------------------------------------|
2.------------------------------------|
3.------------------------------------|
4.-------------9-10--10-10-10-10-10-10
5.-7--7---7-7--7--8---8--8--8--8--8--8
6.-5--5---5-5-------------------------|

1.------------------------------------|
2.------------------------------------|
3.------------------------------------|
4.-------------9-10--10-10-10-10-10-10
5.-7--7---7-7--7--8---8--8--8--8--8--8
6.-5--5---5-5-------------------------|

1.--------------------------------|
2.--------------------------------|
3.--------------------------------|
4.-------------9-10------------7--|
5.-7--7---7-7--7--8------------5--|
6.-5--5---5-5---------------------|...

No hay comentarios:

Publicar un comentario en la entrada