.

banners

Tabs fácil de... Lost worlds. British Lion.


  Proyecto en solitario o banda paralela, como él prefiere definirla, hablamos de British Lion la banda del bajista Steve Harris de Iron Maiden. La banda nace al parecer, de una banda de mismo nombre que apadrinó y produjo allá por los 90 y de la que terminó haciéndose colaborador y miembro permanente. 
  Después de muchos años de composición y espera, hace unos años por fin, lanzaban disco y hoy nos hacemos eco en Tablaturas fáciles,  de la banda, por que vuelve a ser noticia, después de anunciar gira y paso por España.
  Hoy en Tabsfácil British Lion y su tema "Lost worlds."
  Un saludo.
  TabsFácil.






Lost Worlds. British Lion.


1.--------------------------------------------------
2.--------------------------------------------------
3.--------------------------------------------------
4.--------------------------------------------------
5.-4-4-4-4--4-4-4-4--4-4-4--4-4-4-4--6-6-6-6--7-7-7-
6.--------------------------------------------------

1.--------------------------------------------------
2.--------------------------------------------------
3.--------------------------------------------------
4.--------------------------------------------------
5.-4-4-4-4--4-4-4-4--4-4-4--4-4-4-4--6-6-6-6--7-7-7-
6.--------------------------------------------------

1.-----------------------------------------------4--
2.--------------------------------------------7-5---
3.--------------------------------------------------
4.--------------------------------------------------
5.-4-4-4-4--4-4-4-4--4-4-4--4-4-4-4--4-4-4-4--------
6.----------------------repite el riff 4 veces y…

1.-----------0-----------0---0
2.-----------0-----------0---0
3.---2-------2---2-------2---2
4.---2---2-------2---2--------
5.---0-----------0------------
6.----------------------------

1.------------------------------------------------4--
2.--------------------------------------------7-5----
3.---------------------------------------------------
4.---------------------------------------------------
5.-4-4-4-4--4-4-4-4--4-4-4--4-4-4-4--4-4-4-4---------
6.-------------------------repite el riff 4 veces y…

1.---------0-----------0---------------------------
2.---------0-----------0---------------5-----------
3.-2-------2---2-------2--------1-------------4---4
4.-2---2-------2---2--------2--------6-----2------2
5.-0-----------0--------------0----4-------0-------
6.-------------------------------------------------

(estribillo)
1.---------------------------------------------
2.---------------------------------------------
3.---------------------------------------------
4.-6-6--8-8-9--6-6--8-8-9--6-6--8-8-9--6-6--8-8
5.-4-4--6-6-7--4-4--6-6-7--4-4--6-6-7--4-4--6-6
6.---------------------------------------------

(1:45)
1.--------------------------------------------------
2.--------------------------------------------------
3.--------------------------------------------------
4.--------------------------------------------------
5.-4-4-4-4--4-4-4-4--4-4-4--4-4-4-4--6-6-6-6--7-7-7-
6.--------------------------------------------------

 1.----------------------------------------------4--
2.-------------------------------------------7-5----
3.--------------------------------------------------
4.--------------------------------------------------
5.-4-4-4-4--4-4-4-4--4-4-4--4-4-4-4--4-4-4-4--------
6.------------------------repite el riff 4 veces y…

1.-----------0-----------0-------------------------
2.-----------0-----------0----------------5--------
3.---2-------2---2-------2--------1---------------4
4.---2---2-------2---2--------2-2-------6-----2-2-2
5.---0-----------0------------0-----4---------0----
6.-------------------------------------------------

(2:34) estribillo otra vez.

(3:00)
1.----4-4-4-4-----5-5-5-5--------------------------
2.----5-5-5-5-----5-5-5-5------2-2-2-2------2-2-2-2
3.----4-4-4-4-----6-6-6-6------4-4-4-4------2-2-2-2
4.-6-----------------------4---4-4-4-4---4--4-4-4-4
5.-4-----------7-----------2-------------2---------
6.-------------5------------------por 8 veces------



1.----
2.---5
3.---6
4.---6
5.---4
6.----

(3:35)
1.---4---2---5
2.---5---2---5
3.---6---4---6
4.---6---4---7
5.---4---2---7
6.-----------5----8 veces.

1.---5---7---4---2---5
2.---5---7---5---2---5
3.---6---8---6---4---6
4.---7---9---6---4---7
5.---7---9---4---2---7
6.---5---7-----------5---por 2 veces y…

1.---4---2---5----
2.---5---2---5----
3.---6---4---6----
4.---6---4---7----
5.---4---2---7----
6.-----------5----

No hay comentarios:

Publicar un comentario