.

banners

Tabs fácil de... Let the truce be known. Orphaned Land.



  Pioneros del Metal Oriental o Meditarían Metal, los Orphaned Land son una banda de Israel que en su música mezcla elmetal más moderno y agresivo con el folk de Oriente.
  En tablaturas fáciles os queremos dejar unos momentos en tablatura de uno de los temas "Let the cruce be known" de su último trabajo hasta la fecha.
  Esperamos que os guste y disfrutéis de esta pedazo de banda, Orphaned Land en TabsFáciles.
  Un saludo.
  TabsFácil.





Let the truce be known. Orphaned Land.

1.---------------------------------------------
2.---------------------------------------------
3.-----5h6---6-5---5------------6-5------5h6h5-
4.-6h7-----------7----6/7\6--4------7-6--------
5.---------------------------------------------
6.---------------------------------------------

1.----------------------------------------------
2.----------------------------------------------
3.-----5h6---6-5---5-----------6-5--------------
4.-6h7-----------7----6/7\6--4-----7-6----------
5.--------------------------------------6h7h6h7-
6.----------------------------------------------

1.--------------------
2.--------------------
3.--------------------
4.----------2-4-------
5.-7h9h7h9------3-4---
6.--------------------

1.------------------------------------------
2.------------------------------------------
3.------------------------------------------
4.-6--------------6----------------------5-6
5.-4--6---7---6---4--6---7---6---4---2--3-4-
6.----4---5---4------4---5---4---2---0------



(solo) 3:37


1.-----------------12--11—9-8-9-11--9-8------------
2.-9h10h9h10h9h10-----------------------10---------
3.-----------------------------------------11-13-14
4.-------------------------------------------------
5.-------------------------------------------------
6.-------------------------------------------------

1.----------------16-17-16-14--------------------
2.-14-13-------14-------------17-16-14-----------
3.-------14-13--------------------------18-20-21-
4.-----------------------------------------------
5.-----------------------------------------------
6.-----------------------------------------------

1.----------------------------------------------
2.----------18(19)(18)-17-16-17--22(24)22-21-22-
3.-18-20-21-------------------------------------
4.----------------------------------------------
5.----------------------------------------------
6.----------------------------------------------

1.------------------------------------------------
2.-21-19-21--19-17/19-17-16--16/17-16-14--14/16\14
3.------------------------------------------------
4.------------------------------------------------
5.------------------------------------------------
6.------------------------------------------------

1.-----------------
2.-----------------
3.-17------17h18---
4.-----19----------
5.-----------------
6.-----------------

No hay comentarios:

Publicar un comentario