.

banners

Tabs fácil de... The End. In Flames.


  El duodécimo álbum de In Flames ya está listo, llevará por título "Battles" y saldrá el 11 de Noviembre. Catalogado por el grupo como un álbum con "una energía diferente" quizás por el hecho, de haber sido grabado en California.
  En tablaturas fáciles te ofrecemos unos momentos en tablatura del tema adelanto "The End" para que disfrutes mientras llega el momento de disfrutar del álbum al completo.
  Un saludo.
  TabsFácil.




The End. In Flames.


(0:10)
1.-------------------------------------|
2.-6-6--4-4--4--7-7--6-6--4--6-6--4-4--4
3.-------------------------------------|
4.-------------------------------------|
5.-------------------------------------|
6.-------------------------------------|

1.---------------------|
2.-7-6-4---4-----------|
3.-------6---6--6h5--4-
4.---------------------|
5.---------------------|
6.---------------------|...


(0:20)
1.-------------------------------------|
2.-------------------------------------|
3.-------------------------------------|
4.-------------------------------------|
5.-8-8--8-8--8-8-8-8--6-/-8--8-8--8-8--|
6.-6-6--6-6--6-6-6-6--4-/-6--6-6--6-6--|

1.--------------------------------------|
2.--------------------------------------|
3.--------------------------------------|
4.--------------------------------------|
5.-8-8-8-8--6-/-8--8-8--8-8--8-8-8-8--3/4
6.-6-6-6-6--4-/-6--6-6--6-6--6-6-6-6--1/2

1.---------------|
2.---------------|
3.---------------|
4.-6-------------|
5.-4--6--6-/-8---|
6.----4--4-/-6---|...


(2:53)
1.--------------------------------------|
2.--------------------------------------|
3.-----8-10-----/12-----13-12-10----/12-
4.-/10------12------13-----------13-----
5.--------------------------------------|
6.--------------------------------------|

1.--------------------------------------|
2.--------------------------------------|
3.-12-10--12h10h8--8--7h8h7h5-------5-7-
4.-----------------------------8--8-----|
5.--------------------------------------|
6.--------------------------------------|

1.--------------------------------------|
2.----------------16-18-----18(20)(18)(20)
3.-8--7-8--5--/17-------19--------------|
4.--------------------------------------|
5.--------------------------------------|
6.--------------------------------------|

1.--------19(20)--|
2.-18-16----------|
3.----------------|
4.----------------|
5.----------------|
6.----------------|...



No hay comentarios:

Publicar un comentario en la entrada