.

banners

Tabs fácil de... Brotherhood of the snake. Testament.


  "The brotherhood of the snake" el esperadísimo duodécimo álbum de los californianos Testament
ya tiene título, portada, tracklist y fecha de salida. Será el 28 de Octubre bajo el sello Nuclear Blast como viene siendo habitual.
   Esperadísimo por muchos y sobre todo por aquí en Tabs fáciles donde os queremos adelantar desde ya el tema con el que presentan el trabajo, como no, con unos momentos en tablatura que esperamos que disfrutéis.
  Un saludo.
  TabsFácil.



Brotherhood of the snake. Testament.



Guit 1.

1.--------------------------------------|
2.--------------------------------------|
3.--------------------------------------|
4.--------------------------------------|
5.-6-6-6-6-6-6-6-6-6-6-6-6-6-6-6-6-6-6-6
6.--------------------------------------|...

Guit 2.

1.--------------------------------------|
2.--------------------------------------|
3.--------------------------------------|
4.----------7h6-------------------------|
5.-7h6--9h6-----9h6-7h6--7h6-9h6-6h4-7h6
6.--------------------------------------|

1.-----------------|
2.-----------------|
3.-----------------|
4.-----7h6---------|
5.-9h6-----9h6-7h6-
6.-----------------|...

(2:53)

1.--------------------------------------|
2.-/4--6-7----4-6-/4--6-7-/9-7-6h7------|
3.---------/6----------------------8-10-
4.--------------------------------------|
5.--------------------------------------|
6.--------------------------------------|

1.--------------------------------------|
2.----------------(HH)--/9-7-6h7--------|
3.-11----8-10-8-10-11----------------/10
4.----11---------------------------8----|
5.---------------------------------6----|
6.--------------------------------------|

1.-------------------------------------------|
2.-------------------------------------------|
3.-11------/10-10-11-------------------------|
4.------8-------------8------6--------8--/6-8
5.------6-------------6--6-8---9-8h9--6------|
6.-------------------------------------------|

No hay comentarios:

Publicar un comentario