.

banners

Tablatura fácil de...Él no llorará. Leo Jimenez.

  
Leo Jimenez se ha convertido por derecho propio en una de las voces más grandes del metal en español. 
     Desde que empezara con Saratoga hasta la fecha, ha grabado cantidad de discos y colaboraciones con muchos otros artistas, incluyendo su obra en solitario, donde, "Animal solitario" representa para mí de lo mejor de su carrera.  En Tabs fáciles queremos recordar el DVD con temas en directo y alguna que otra rareza, una obra especial para coleccionistas.
     Y os queremos dejar unos momentos en tablatura del tema "Él no llorará" perteneciente a ese trabajo.
    Un saludo.
    TabsFácil.




Él no llorará. Leo Jimenez.


(0:08)
1.---------------------------------
2.---------------------------------
3.---------------------------------
4.--3-4-4/6--4-6-6/7--6-4-4/6--4/3-
5.---------------------------------
6.---------------------------------

1.-------------------------
2.-------------------------
3.-------------------------
4.--3-4-4/6--4-6-6/7--6--7-
5.-----------------------5-
6.-------------------------

1.---------------------------------
2.---------------------------------
3.---------------------------------
4.--3-4-4/6--4-6-6/7--6-4-4/6--4/3-
5.---------------------------------
6.---------------------------------

1.------------------------
2.------------------------
3.-------------------4----
4.--3-4-4/6--4-6--7--2--6-
5.----------------5-----4-
6.------------------------...

(2:39)
1.-------------------------------------
2.--12(14)--14--12(14)(12)-10----------
3.-------------------------------13-14-
4.----------------------------12-------
5.-------------------------------------
6.-------------------------------------

1.--------------------------------------
2.--------------------------------------
3.-13-13/14-16-14-13----13---13-13/14\13
4.-------------------16---16------------
5.--------------------------------------
6.--------------------------------------


1.---------------------------------10-
2.------------------------9-10-/12----
3.----13--11-13-11--13/14-------------
4.-16---------------------------------
5.------------------------------------
6.------------------------------------


1.--9-10-9----9--9-10-9----9-9-10-9----9
2.---------12-----------12----------12--
3.--------------------------------------
4.--------------------------------------
5.--------------------------------------
6.--------------------------------------

1.----------------------------------10-
2.--12-10-12-10-9-10-9---9-------------
3.---------------------11--11-10-11----
4.-------------------------------------
5.-------------------------------------
6.-------------------------------------

1.-12-10----10-10-12-10----10--12-14-12
2.-------14-------------14-------------
3.-------------------------------------
4.-------------------------------------
5.-------------------------------------
6.-------------------------------------

1.-10-12-14-12-10-------------12-14-12------
2.----------------14-12-14-15----------15-14
3.------------------------------------------
4.------------------------------------------
5.------------------------------------------
6.------------------------------------------...

No hay comentarios:

Publicar un comentario en la entrada