.

banners

Tablatura fácil de...Arena. Sôber.


  Una de las mejores bandas del panorama nacional desde hace ya muchos años, son sin duda, Sôber y para todos los que nos gustan estamos de enhorabuena por que ya tenemos adelanto de lo que será su próximo trabajo que saldrá a finales del mes de Octubre. el disco llevará por nombre "Vulcano" y el adelanto que hace pocos días presentaran "Arena."
  Y como no, es de "Arena" del que os queremos dejar unos momentos en tablatura para que disfrutéis. 
 Si os gustan Sôber aquí lo tenéis, en Tablaturas fáciles.
  Un saludo.
  TabsFácil.





Tablatura fácil de...Arena. Sôber.


Guitarra 1.

1.--------------------------------------|
2.--------------------------------------|
3.---5-8--7-5----8-7-5----5--3----5-3---|
4.-5----------5----------6----6-------6-|
5.----------------------6------6--------|
6.--------------------------------------|

Guitarra 2.

1.--------------------------------------|
2.--------------------------------------|
3.--------------------------------------|
4.-5------------------------------------|
5.-3--------------------6---------------|
6.----------------------4---------------|

Guitarra 1.

1.--------------------------------------|
2.----------------------------3---------|
3.---1--0-----1-0-----5--3------5-3-----|
4.--3----3-------3---6----6-------------|
5.-3------3---------6------6------------|
6.--------------------------------------|

Guitarra 2.

1.--------------------------------------|
2.--------------------------------------|
3.--------------------------------------|
4.-----------------------------3--------|
5.-3-----------------6---------1--------|
6.-1-----------------4------------------|

Guitarra 1.

1.--------------------------------------|
2.--------------------------------------|
3.---5-8--7-5----8-7-5----5--3----5-3---|
4.-5----------5----------6----6-------6-|
5.----------------------6------6--------|
6.--------------------------------------|

1.--------------------------------------|
2.------------------------------(HH)(HH)|
3.---1--0-----1-0-----5--3--------3--3--|
4.--3----3-------3---6----6-----6-------|
5.-3------3---------6------6------------|
6.--------------------------------------|


(1:19)  "Los demonios salen a buscarte...

1.-----------------------------------------|
2.-----------------------------------------|
3.-----------------------------------------|
4.-----------------------------------------|
5.-3--5-6---/5-6---------1--3--5-6--/5-6---|
6.--------4------1--1-3-4---------4------1-4


(3:07)

1.---------------------------------------|
2.-8--6h8--6h8/9\8-6--8-8--6h8--6h8/9\8-6
3.---------------------------------------|
4.---------------------------------------|
5.---------------------------------------|
6.---------------------------------------|

1.------------------------------------------|
2.-9-9--8h9--8h9/11\9-8--9-9--8h9--8h9/11\9-8
3.------------------------------------------|
4.------------------------------------------|
5.------------------------------------------|
6.------------------------------------------|

1.---------------------------------------|
2.-8--6h8--6h8/9\8-6--8-8--6h8--6h8/9\8-6
3.---------------------------------------|
4.---------------------------------------|
5.---------------------------------------|
6.---------------------------------------|

1.------------------------------------------|
2.-9-9--8h9--8h9/11\9-8--9-9-8-9--9-11--9-8-|
3.------------------------------------------|
4.------------------------------------------|
5.------------------------------------------|
6.------------------------------------------|

1.---------------------------------------|
2.-12h13h12h13---------------------------|
3.-------------12h13h12h13--10h12h10h12--|
4.---------------------------------------|
5.---------------------------------------|
6.---------------------------------------|


1.---------------15-14-12----------------|
2.------------------------15-14-12-15----|
3.-8h10h8h10-------------------------16-13
4.-----------12--------------------------|
5.---------------------------------------|
6.---------------------------------------|

1.---------------------------------------|
2.---------------------12--13--15(16)-15-|
3.-16-13-12-13--12-13--------------------|
4.---------------------------------------|
5.---------------------------------------|
6.---------------------------------------|...



No hay comentarios:

Publicar un comentario en la entrada