.

banners

Tablatura fácil de... Valor. Dünedain.


  Dünedain vuelve a estar de actualidad,  con el anuncio de su nuevo lanzamiento discográfico para mediados  de Octubre, ya está en la calle la portada del disco, título y el nombre de los temas...(Leer Más).
   En Tablaturas fáciles, queremos ofreceros mientras esperamos todos el poder escuchar el disco unos momentos en tablatura de algunos de esos mejores temas que esperamos, como siempre, que os guste y disfrutéis.
  Un saludo.
  TabsFácil.






Valor. Dünedain.


   “Cuando…                         (0:13)                                                      
1.---------------------------------------
2.---------------------------------------
3.---------------------------------------
4.-7--5--3-----------5--7--7--5--3--3----
5.-5--3--1--3--5--3--3--5--5--3--1--1--3-
6.----------1--3--1--------------------1-

1.---------------------------------
2.---------------------------------
3.---------------------------------
4.-------------------------------5-
5.-5---5---3---3-3-3-3-3-3-3-3---3-
6.-3---3---1---1-1-1-1-1-1-1-1-----

                 
(guitarra 2) (0:13)

1.---------------------           
2.---------------------
3.------9-7---7-7----7-
4.-7-10-----------10---
5.---------------------
6.---------------------

1.--------------------------8-6---
2.---------------------8-10-------
3.------9-7---7-7----7------------
4.-7-10-----------10--------------
5.--------------------------------
6.--------------------------------

1.-6-6---6--6-8-6---------------------
2.-----10---------10-10--10-11---10-8-
3.------------------------------------
4.------------------------------------
5.------------------------------------
6.------------------------------------

Guitarra 1. (0:24)
1.-------------------------------------------
2.-------------------------------------------
3.-------------------------------------------
4.-7---------7-7-5-7--7--5--3---------3-3-2-3
5.-5--5-5-5--5-5-3-5--5--3--1--1-1-1--1-1-0-1
6.-------------------------------------------

1.------------------------------------------
2.------------------------------------------
3.------------------------------------------
4.-3----------------------------------------
5.-1--3--5---------5-5-3-5--5--3-----------3
6.----1--3--3-3-3--3-3-1-3--3--1--1-1-1-1--1
                                 

Guitarra 2.(0:24)
                                
1.---------------------                                          
2.------------------(H)
3.------9-7---7-7----7-
4.-7-10-----------10---
5.---------------------
6.---------------------

1.--------------------------8-6---
2.---------------------8-10-------
3.------9-7---7-7----7------------
4.-7-10-----------10--------------
5.--------------------------------
6.--------------------------------

1.-6-6---6--6-8-6---------------------
2.-----10---------10-10--10-11---10-8-
3.------------------------------------
4.------------------------------------
5.------------------------------------
6.------------------------------------

1.-6-8-6-------------------------
2.-------10-8-11-10---8----10----
3.----------------------10----12-
4.-------------------------------
5.-------------------------------
6.-------------------------------

1.---------------------------------------
2.---------------------------------------
3.-10-9-12-10--9----10--9-------9--------
4.---------------12-------12-10---12-10-8
5.---------------------------------------
6.---------------------------------------

Guitarra 1.            ( 0:49)
1.---------------------------------------------
2.---------------------------------------------
3.---------------------------------------------
4.-5--5-5-5-5--7-7--5-5--3-3-3------------5-5-5
5.-3--3-3-3-3--5-5--3-3--1-1-1--5-5--3-3--3-3-3
6.------------------------------3-3--1-1-------


 Guitarra 2. (0:49)
1.-------------------------------------------
2.-------------------------------------------
3.-10-9-----9--------------------------------
4.------12----12-10--12-10-8--10-8----8------
5.--------------------------------12----12-10
6.-------------------------------------------

1.---------------------------------------
2.-8-6----6------------------------------
3.-----9----9-7---9-7-5---7-5---5--------
4.---------------------------8----8-7----
5.---------------------------------------
6.---------------------------------------

1.-----------------------------------------
2.-----------------------------------------
3.-10-9-----9------------------------------
4.------12----12-10--12-10-8--10-8---8-----
5.--------------------------------12--12-10
6.-----------------------------------------

1.-----------------------------------------
2.-8-6----6-----------------------------H--
3.-----9----9-7---9-7-5---7-5---5------(7)-
4.----------------------------8---8-7------
5.-----------------------------------------
6.-----------------------------------------

  


No hay comentarios:

Publicar un comentario en la entrada