.

banners

Tablatura fácil de... Travesía urbana. Baron Rojo.



  Leyendas del heavy metal español, Baron Rojo, los primeros en codearse con bandas com Iron Maiden o personajes de la talla de Michael Schenker, que aún siguen en la brecha, pero que hoy queremos en tablaturas fáciles, recordarlos con unos momentos en tablatura de un mítico álbum "No va más" y uno de sus temas "Travesía urbana." Para románticos sin duda, esperamos que os guste y disfrutéis.
  Un saludo.
  TabsFácil.






Travesía urbana. Barón Rojo.




1.----------------------------------------------
2.----------------------------------------------
3.----------------------------------------------
4.-13-13-13-14-14-14-13-13-13-13-13-13-13-13-13-
5.----------------------------------------------
6.----------------------------------------------

                                        2 veces
1.----------------------------------------------
2.----------------------------------------------
3.----------------------------------------------
4.-------------------------2-----------------3-2
5.-------------------0-2-3---3-2-0-----0-2-3----
6.-----------------0-----------------0----------

1.----------------------------------------------
2.----------------------------------------------
3.----------------------------------------------
4.-15-15-15-16-16-16-15-15-15-15-15-15-15-15-15-
5.----------------------------------------------
6.----------------------------------------------

                                       2 veces
1.--------------------------------------------
2.--------------------------------------------
3.--------------------------------------------
4.---------3-2--------------5-4---------------
5.---0-2-3-----3-0----0-2-3-------------------
6.-0----------------0-------------------------

  Un nuevo día...
1.-------------------------------------------
2.-------------------------------------------
3.-------------------6-----------------------
4.-------------------------------------------
5.-0-0---0-3-0-0---0----0-0---0-3-0-0--------
6.-----3---------3----------3---------3-0----

   No es nada fácil...
 1.--------------------------------------------
2.---------------------------------------------
3.-------------------6-------------------------
4.-------------------------------------4-------
5.-0-0---0-3-0-0---0---0-0---0-3-0-0---2--2-2-2
6.-----3---------3---------3---------3----0-0-0

  Para empezar...
1.------------------------------------------
2.------------------------------------------
3.-------------------6----------------------
4.------------------------------------------
5.-0-0---0-3-0-0---0----0-0---0-3-0-0-------
6.-----3---------3----------3---------3-0---



   Gusanos locos...                ...saber...
1.----------------------------------------------
2.----------------------------------------------
3.-------------------6--------------------------
4.---------------------------------------4------
5.-0-0---0-3-0-0---0---0-0---0-3-0-0--2--2-2-2--
6.-----3---------3---------3--------3-----0-0-0-

travesía de sal...                     2 veces  
1.-------------------------------------------|
2.-------------------------------------------|
3.-------------------------------------------|
4.-------------------------------------------|
5.-9-------4------6--------4-2-4-2-4-4-2-4---|
6.-7-------2------4--------2-0-2-0-2-2-0-2---|

1.-------------------------------------------|
2.------------------/9-----------------------|
3.-----------------------/11-----------------|
4.---/16-------/9----------------------------|
5.-------------------------------------------|
6.-------------------------------------------|

                                        2 veces
1.---------------------------------------------
2.---------------------------------------------
3.---------------------------------------------
4.---------3-2------------------------------5-4
5.---0-2-3-----3-0---0-0-0---0-0-0----0-2-3----
6.-0--------------------------------0----------

  Una sirena...
1.--------------------------------------------
2.--------------------------------------------
3.-------------------6------------------------
4.--------------------------------------------
5.-0-0---0-3-0-0---0----0-0---0-3-0-0---------
6.-----3---------3----------3---------3-0-----

  entonces supe...                   ...me...
1.----------------------------------------------
2.----------------------------------------------
3.-------------------6--------------------------
4.-------------------------------------4--------
5.-0-0---0-3-0-0---0---0-0---0-3-0-0---2--2-2-2-
6.-----3---------3---------3---------3----0-0-0-



travesía de sol...                    2 veces
1.------------------------------------------|
2.------------------------------------------|
3.------------------------------------------|
4.------------------------------------------|
5.-9-------4------6--------4-2-4-2-4-4-2-4--|
6.-7-------2------4--------2-0-2-0-2-2-0-2--|


1.------------------------------------------|
2.------------------/9----------------------|
3.-----------------------/11----------------|
4.---/16-------/9---------------------------|
5.------------------------------------------|
6.------------------------------------------|

1.--------------------------------------------
2.--------------------------------------------
3.--------------------------------------------
4.-9-9-9-8-8-8-8-8-9-11--8-8-8-9-9-9-8-8-8-9-11
5.--------------------------------------------
6.--------------------------------------------

Arrecifes de hierro y hormigón...

este viaje...
1.--------------------------------------------
2.--------------------------------------------
3.--------------------------------------------
4.--------------------------------------------
5.---9---9--------6---6-----4-4-4-4-4-4-4-4-4-
6.-7---7---7---4----4---4---2-2-2-2-2-2-2-2-2-

regreso al puerto...
1.--------------------------------------------
2.--------------------------------------------
3.--------------------------------------------
4.--------------------------------------------
5.---9---9--------6---6-----4-4-4-4-4-4-4-4-4-
6.-7---7---7---4----4---4---2-2-2-2-2-2-2-2-2-

   Es arbolada...
1.-----------------------------------------------
2.-----------------------------------------------
3.-----------------------------------------------
4.-----------------------------------------------
5.-9-9-4-4-6-6-4-4-2-4-2-2-4--9-9-4-4-6-6-4-4-2-4
6.-7-7-2-2-4-4-2-2-0-2-0-0-2--7-7-2-2-4-4-2-2-0-2

(solo)

Travesía de...

  Travesía de sal...
1.------------------------------------------------
2.------------------------------------------------
3.------------------------------------------------
4.-16---16----14----14----13----13---11---11---9--
5.----14---14----14----14----11----11---9---9----9
6.------------------------------------------------

                             
1.-----------------------------------
2.-----------------------------------
3.-----------------------------------
4.-9---11---11---9---9---11---11-----
5.---9----9----9---9---9----9----9---
6.-----------------------------------


  Una isla de paz...
1.------------------------------------------------
2.------------------------------------------------
3.------------------------------------------------
4.-16---16----14----14----13----13---11---11---9--
5.----14---14----14----14----11----11---9---9----9
6.------------------------------------------------

                           
1.-----------------------------------
2.-----------------------------------
3.-----------------------------------
4.-9---11---11---9---9---11---11-----
5.---9----9----9---9---9----9----9---
6.-----------------------------------

  Uoh!...            (esta base se repite hasta
                     el final y sobre ella se
                     toca lo que sigue mas abajo)
1.---------------------------------------------
2.---------------------------------------------
3.---------------------------------------------
4.---------------------------------------------
5.-9-------4--------6-------4----2-4-2-4-4-2-4-
6.-7-------2--------4-------2----0-2-0-2-2-0-2-


  Travesía de...

1.------------------------------------------------
2.------------------------------------------------
3.------------------------------------------------
4.-16---16----14----14----13----13---11---11---9--
5.----14---14----14----14----11----11---9---9----9
6.------------------------------------------------
                           
1.-----------------------------------
2.-----------------------------------
3.-----------------------------------
4.-9---11---11---9---9---11---11-----
5.---9----9----9---9---9----9----9---
6.-----------------------------------

   Travesía de...

1.------------------------------------------------
2.------------------------------------------------
3.------------------------------------------------
4.-16---16----14----14----13----13---11---11---9--
5.----14---14----14----14----11----11---9---9----9
6.------------------------------------------------

                           
1.-----------------------------------
2.-----------------------------------
3.-----------------------------------
4.-9---11---11---9---9---11---11-----
5.---9----9----9---9---9----9----9---
6.-----------------------------------

    Una luz...

1.---7---7---6---6---4---4------------------------
2.-7---7---7---7---7---7---7-7-7-7---7---7---7---7
3.---------------------------------4---4---3---3--
4.------------------------------------------------
5.------------------------------------------------
6.------------------------------------------------


1.-----------------------
2.---7---7---7---5-7-----
3.-4---4---6-------------
4.-----------------------
5.-----------------------
6.-----------------------



  Travesía de...

1.---7---7---6---6---4---4------------------------
2.-7---7---7---7---7---7---7-7-7-7---7---7---7---7
3.---------------------------------4---4---3---3--
4.------------------------------------------------
5.------------------------------------------------
6.------------------------------------------------


1.-----------------------
2.---7---7---7---5-7-----
3.-4---4---6-------------
4.-----------------------
5.-----------------------
6.-----------------------


  Una...

1.---7---7---6---6---4---4------------------------
2.-7---7---7---7---7---7---7-7-7-7---7---7---7---7
3.---------------------------------4---4---3---3--
4.------------------------------------------------
5.------------------------------------------------
6.------------------------------------------------

1.-----------------------
2.---7---7---7---5-7-----
3.-4---4---6-------------
4.-----------------------
5.-----------------------
6.-----------------------


No hay comentarios:

Publicar un comentario