.

banners

Tablatura fácil de... Soundtrack of my life. Blaze Bayley & Thomas Zwijsen.



 Desenchufar la guitarra y disfrutar de este buen tema. El trabajo de Blaze Bayley, ex de la dama de hierro me gusta mucho y mas aún el guitarrista  Thomas Zwijsen que colabora con él, por eso y por el tema en cuestión, que también podría ser la "banda sonora de tu vida" estan hoy en tablaturas fáciles.
  Un saludo.
  TabsFácil.



Soundtrack of my life. Blaze bayley.


1.-11-----11----11----11----12----12---12----12----
2.----10----10----10----10----10----10---10----10--
3.-------9----9-----9-----9-----9-----9----9-----9-
4.-------------------------------------------------
5.-------------------------------------------------
6.-------------------------------------------------

1.-11-----11----11----11----12----12---12----12----
2.----10----10----10----10----10----10---10----10--
3.-------9----9-----9-----9-----9-----9----9-----9-
4.-------------------------------------------------
5.-------------------------------------------------
6.-------------------------------------------------

1.-11-----11----11----11----12----12---12----12----
2.----10----10----10----10----10----10---10----10--
3.-------9----9-----9-----9-----9-----9----9-----9-
4.-------------------------------------------------
5.-------------------------------------------------
6.-------------------------------------------------

1.-11-----11----11----11----12----12---12----12----
2.----10----10----10----10----10----10---10----10--
3.-------9----9-----9-----9-----9-----9----9-----9-
4.-------------------------------------------------
5.-------------------------------------------------
6.-------------------------------------------------


1.-9-----9-----9-----9----10---10---10---10---
2.---7-----7-----7-----7----7----7----7-----7-
3.-----7-----7-----7----7----7----7----7-----7
4.--------------------------------------------
5.--------------------------------------------
6.--------------------------------------------

1.-7-----7-----7-----7-----7-----7-----7-----7----
2.---6-----6-----6-----6-----6-----6-----6-----6--
3.-----7-----7-----7-----7-----7-----7-----7-----7
4.------------------------------------------------
5.------------------------------------------------
6.------------------------------------------------

(0:24)
1.------------------------------------------------
2.-7-----7-----9-----10-----7-----7-----9-----10--
3.---6-----6-----6------6-----6-----6-----6-----6-
4.-----7-----7-----7------7-----7-----7-----7----7
5.------------------------------------------------
6.------------------------------------------------


(0:28)  “This is…
1.--------------------------------------------
2.-----------7-----9-----10---10---9-----7----
3.-----6-------6-----6-----6----6----6-----6--
4.-------7-------7-----7----7----7-----7-----7
5.---9----------------------------------------
6.--------------------------------------------

1.---------------------------------------------------
2.-9-----9----9----9-----9----7-----7-----7-----7----
3.---6-----6----6----6-----6----6-----6-----6-----6--
4.-----7-----7----7----7----7-----7-----7-----7-----7
5.---------------------------------------------------
6.---------------------------------------------------

(1:01)       ---------------8 veces---------
1.-----------|-5------7------4------5-------
2.-----7-----|---7------7------7------7-----
3.-------6---|-----6------6------6------6---
4.---4-------|-4------4------4------4-------
5.-----------|------------------------------
6.-----------|------------------------------


(1:15)
1.---5---5---8----8----7---5
2.---5---5---8----8----7---5
3.---7---7---10---10---9---7
4.---7---8---10---10---9---7
5.---5---5---8----8----7---5
6.--------------------------

(1:46) estribillo
1.---2---5---5---
2.---2---5---5---
3.---2---5---7---
4.---4---7---7---
5.---4---7---5---
6.---2---5-------

(3:05)
1.----------------------9-----------------------9----
2.-7-----------7----------10-9-10-7-----------7--10-9
3.---6-------6---6------------------6-------6--------
4.-----7---7-------7------------------7---7----------
5.-------9-----------9------------------9------------
6.---------------------------------------------------


1.---5---5
2.---5---7
3.---7---6
4.---7---7
5.---5---5
6.--------

1.---------------------9-----------------------9-----
2.-7-----------7---------10-9-10-7-----------7---10-9
3.---6-------6---6-----------------6-------6---------
4.-----7---7-------7-----------------7---7-----------
5.-------9-----------9-----------------9-------------
6.---------------------------------------------------

1.---5---5
2.---5---7
3.---7---6
4.---7---7
5.---5---5
6.--------


(3:20)
1.-5------5------7------4------5-----
2.---7------7------7------7------7---
3.-----6------6------6------6------6-
4.-----------------------------------
5.-----------------------------------
6.-----------------------------------repetimos 8 veces

1.-5------5------7------4------
2.---7------7------7------7----
3.-----6------6------6------6--
4.-4------4------4------4------
5.-----------------------------
6.-----------------------------

1.-5------5------7------4------
2.---7------7------7------7----
3.-----6------6------6------6--
4.-4------4------4------4------
5.-----------------------------
6.-----------------------------

1.-5------5------7------4------
2.---7------7------7------7----
3.-----6------6------6------6--
4.-4------4------4------4------
5.-----------------------------
6.-----------------------------

1.-5------5------7------4------
2.---7------7------7------7----
3.-----6------6------6------6--
4.-4------4------4------4------
5.-----------------------------
6.-----------------------------

Más tablaturas de...

No hay comentarios:

Publicar un comentario en la entrada