.

banners

Tablatura fácil de... Me gusta. Rulo y la Contrabanda.



  A mediados de Octubre está previsto que Rulo y la Contrabanda saque a la venta su próximo trabajo
"El doble de la mitad," un trabajo que ya tiene varios adelantos en la calle, uno de ellos, el que hoy os presentamos aquí en tabsfaciles, lleva por título "Me gusta" y os queremos dejar un momento en tablatura del solo que, esperamos como siempre que os guste y disfrutéis.
  Un saludo.
  TabsFácil.







Me gusta. Rulo y la Contrabanda.




(3:00)

1.--------2-0-----------0-2/4------------------|
2.------2-----0-------0------------------10----|
3.----2---------2-2/1--------------11----------|
4.--4--------------------------/12----12----12-|
5.---------------------------------------------|
6.---------------------------------------------|

1.-10-9-7----------14--10-14--------17-17------|
2.--------7-------------------10/14-------17(19)
3.-----------9/11------------------------------|
4.---------------------------------------------|
5.---------------------------------------------|
6.---------------------------------------------|

1.---------------------------------------------|
2.-19--19-17-----------19--19-17--------------14
3.-----------18-20(21)-----------18-16--14-16--|
4.---------------------------------------------|
5.---------------------------------------------|
6.---------------------------------------------|

1.---------------------------------------------|
2.---------------------------------------------|
3.-16-16(18)(16)-14--------/4--4/6--6/7--7/9---|
4.------------------16-//----------------------|
5.---------------------------------------------|
6.---------------------------------------------|

1.---------------------------------------------|
2.--------------------------/3--3/5--5/7--7/9--|
3.-9/11--11/13--13(14)(13)---------------------|
4.---------------------------------------------|
5.---------------------------------------------|
6.---------------------------------------------|

1.-----------------------------------|
2.-9/10--9(10)(9)-7------------------|
3.------------------9---6(7)(6)-4----|
4.--------------------------------7--|
5.-----------------------------------|
6.-----------------------------------|


No hay comentarios:

Publicar un comentario