.

banners

Tablatura facil de... La rosa negra. Dünedain.


  Aprovechando que Dünedain vuelve a ser noticia con la publicación de su próximo y esperadísimo trabajo a primeros de Octubre, en Tabs fáciles queremos dejaros unos momentos de algunos de sus mejores temas en tablatura, como es el caso de éste "La rosa negra" un temazo se mire por donde se mire.
  Un saludo.
  TabsFácil.







La Rosa negra. Dünedain.



Guitarra 1.
1.------------------------------------------
2.------------------------------------------
3.------------------------------------------
4.-5---------3--------3---5---------------3-
5.-3----3----1----6---1---3---3---6---3---1-
6.------1---------4-----------1---4---1-----

Guitarra 2.

1.------------------------------------------
2.------------------------------------------
3.—12-10-12-13—-----------------------------
4.--------------12-13-15-13-15--------12-10-
5.-----------------------------13-15--------
6.------------------------------------------

1.------------------------------------------
2.------------------------------------------
3.-12-13----------------12-13-12------------
4.-------12-13-15-13-15----------15-13-12---
5.------------------------------------------
6.------------------------------------------


Guitarra 1.
1.------------------------------------------
2.------------------------------------------
3.------------------------------------------
4.-5---------3--------3---5---------------3-
5.-3----3----1----6---1---3---3---6---3---1-
6.------1---------4-----------1---4---1-----

Guitarra 2.

1.------------------------------------------
2.------------------------------------------
3.—12-10-12-13—-----------------------------
4.--------------12-13-15-13-15--------12-10-
5.-----------------------------13-15--------
6.------------------------------------------

1.------------------------------------------
2.------------------------------------------
3.-12-13----------------12-13-12------------
4.-------12-13-15-13-15----------15-13-12---
5.------------------------------------------
6.------------------------------------------

Guitarra 1.
1.--------------------------------------------
2.--------------------------------------------
3.--------------------------------------------
4.-5-------------------------5---------------3
5.-3-------------3-----------3---------------1
6.---------------1----------------------------


Guitarra 2.

1.-15------------15-----16--15----------------
2.---16-15--15-16--16-15--18--16-15---15-16-18
3.--------17-----------------------17---------
4.--------------------------------------------
5.--------------------------------------------
6.--------------------------------------------




Do           sol             #la
Ya no importa la razón,

         Fa   #la            do                    fa          #la     #sol fa
Sólo mueren las palabras en una historia que acabó.

Do             sol             #la                 fa       #la
Hoy no pido más a dios, nunca he sentido su abrazo.

Fa           #la                #sol #la #sol #la
Sólo un triste corazón.



Fa                                   sol                            do
Siento que duele el recuerdo de la obra creada, o no.

#sol                                 fa                     sol #sol sol #sol #la
Creo que ya es el momento de sentir tu adiós…



Do            fa         #la                       #sol #la
La rosa cayó, hay sangre en sus manos.

Fa                #la              #sol        #la
La noche lloró, secretos guardados.

Do            fa           #la          #sol #la
La rosa cayó, el miedo ha cesado.

Fa            #la                          #sol #la
La espina que abrió la flor del rechazo….



Guitarra 1.
1.--------------------------------------
2.--------------------------------------
3.--------------------------------------
4.-5---------5----3---5---------------3-
5.-3----3----3----1---3---3---6---3---1-
6.------1-----------------1---4---1-----

Guitarra 2.

1.—15---------------15-------16----
2.---16-15----15-16---16-15----18--
3.---------17----------------------
4.---------------------------------
5.---------------------------------
6.---------------------------------

1.-15------------------------------15
2.----16-15----15-16-18-16-15--16----
3.----------17-----------------------
4.-----------------------------------
5.-----------------------------------
6.-----------------------------------

1.—15---------------15-------16----
2.---16-15----15-16---16-15----18--
3.---------17----------------------
4.---------------------------------
5.---------------------------------
6.---------------------------------

1.-16----18----15-16-15----------
2.----18----20----------18-16-15-
3.-------------------------------
4.-------------------------------
5.-------------------------------
6.-------------------------------

Guitarra 1.
1.--------------------------------------
2.--------------------------------------
3.--------------------------------------
4.-5---------5----3---5---------------3-
5.-3----3----3----1---3---3---6---3---1-
6.------1-----------------1---4---1-----

Guitarra 2.

1.—15---------------15-------16----
2.---16-15----15-16---16-15----18--
3.---------17----------------------
4.---------------------------------
5.---------------------------------
6.---------------------------------

1.-15------------------------------15
2.----16-15----15-16-18-16-15--16----
3.----------17-----------------------
4.-----------------------------------
5.-----------------------------------
6.-----------------------------------

1.—15---------------15-------16----
2.---16-15----15-16---16-15----18--
3.---------17----------------------
4.---------------------------------
5.---------------------------------
6.---------------------------------

1.-16----18----15-16-15----------
2.----18----20----------18-16-15-
3.-------------------------------
4.-------------------------------
5.-------------------------------
6.-------------------------------



Guitarra 1.

1.------------------------------------
2.------------------------------------
3.------------------------------------
4.---------5-------3-----------------3
5.-3-------3-------1--------6--------1
6.-1------------------------4---------

Guitarra 2.

1.—8-------------8------9------6------------
2.---9-8-----8-9---9-8----11-----8-6----6-8-
3.-------10--------------------------8------
4.------------------------------------------
5.------------------------------------------
6.------------------------------------------

1.-6-8-6--------8------------8------9----8--
2.-------9-8-6----9-8----8-9----9-8---11----
3.--------------------10--------------------
4.------------------------------------------
5.------------------------------------------
6.------------------------------------------

1.-9-8------------------------
2.—----11-9-8-----8-9-8-------
3.-------------10--------10—8-
4.----------------------------
5.----------------------------
6.----------------------------



(3:52) Guitarra 1.

1.---------------------------------
2.---------------------------------
3.---------------------------------
4.--------------------------3------
5.-5-----6------5------6----1-----5
6.-3-----4------3------4----------3


(3:52) Guitarra 2.

1.-----------------------------------
2.-----------------------------------
3.-----------------------------------
4.—12-13-10--13-15-12--10-12-13—12-13
5.-----------------------------------
6.-----------------------------------


1.----------------------
2.----------------------
3.----------------------
4.-13-15-13-12----------
5.-------------15-13-12-
6.----------------------

No hay comentarios:

Publicar un comentario en la entrada