.

banners

Tablatura fácil de... Kubo y las dos cuerdas mágicas. (B.S.O).


  "En el antiguo Japón, Kubo es un  joven que vive junto a su madre en un pequeño pueblo en el que nunca pasa nada. Un día, sin hacer caso a su madre, no regresa a casa antes del anochecer. 
  Tras este incidente, el chico se verá obligado a luchar contra dioses y monstruos peligrosos como el resentido Rey Luna,  las malvadas gemelas con la ayuda de Mona, Escarabajo  y de su shamisen, un bello instrumento mágico. Si quiere salvar a su familia y resolver el misterio que rodea a su progenitor, tendrá que encontrar la armadura mágica que pertenecía a su padre, que fue un legendario guerrero samurai."

   En Tablatura fáciles te proponemos un rato de diversión tocando la intro del tema que interpreta Regina Spektor para la banda sonora de la película.
  Un saludo.
  TabsFácil.



While My Guitar Gently Weeps - Regina Spektor.


1.-17-14-----------------------------------|
2.-------15-17-----------------------------|
3.-------------16-14--------------16--16-16-
4.-------------------16-14-----------------|
5.-------------------------17-14-----------|
6.-----------------------------------------|

1.-----------------------------------------|
2.-----------------------------------------|
3.-16-16--16-16--16-16--16-16--16-16-16-16-
4.-----------------------------------------|
5.-----------------------------------------|
6.-----------------------------------------|

1.-----------------------------------------|
2.-16-16--16--16-16--16-16-18-19--21--19-21
3.-----------------------------------------|
4.-----------------------------------------|
5.-----------------------------------------|
6.-----------------------------------------|

1.------------------------------|
2.-19--------17-------17--------|
3.----19--16---18--14----16-----|
4.---------------------------18-
5.------------------------------|
6.------------------------------|...



No hay comentarios:

Publicar un comentario