.

banners

Tablatura fácil de... He's a pirate. Víctor de Andrés.




    El prolífico pirata de las seis cuerdas, Víctor de Andrés presenta hoy, 1 de Septiembre un Ep con 4 temas que llevará por título "Érase una vez" del que en cuanto escuchemos los temas, seguro que habrá tablaturas.  Cómo grandes admiradores y seguidores del guitarrista que somos en Tabs Fáciles, no sólo queríamos hacernos eco de la inminente salida, sino que no hemos podido esperar y hemos querido  compartir con vosotros uno de esos momentos épicos con los que nos divierte y sorprende el guitarrista en su canal de Youtube.
  Diviértete y aprende a tocar la guitarra con "He's a pirate" de Víctor de Andrés.
  Un saludo.
  TabsFácil.




He's a pirate. Víctor de Andrés.



1.------------------------------------------|
2.------------------------------------------|
3.------------------------------------------|
4.------------------------3-----------------|
5.-//-----3-3--3h5-6-6--6---5-5--3-----3---3
6.----3h6--------------------------6-6---6--|

1.--------------------------------------|
2.--------------------------------------|
3.--------------------------------------|
4.----------------------3---------(HH)--|
5.------3-3--3h5-6-6--6---5-5--3---3----|
6.--3h6--------------------------6------|

1.------------------------------------------|
2.------------------------------------------|
3.------------------------------------------|
4.-------------------3h5-6-6--5h6h5h3---5---|
5.-----3-3--5h6-8-8-------------------6---3-|
6.-3h6--------------------------------------|


1.------------------------------------|
2.------------------------------------|
3.------------------------------------|
4.---------3--5-----------------------|
5.-3h5-6-6------3--5-6-5-5--5h6h5h3-5-|
6.------------------------------------|...



Más tablaturas de...Víctor de Andrés.

No hay comentarios:

Publicar un comentario