.

banners

Tablatura fácil de... Square Hammer. Ghost.



  La banda sueca Ghost, vuelve a estar de actualidad con el lanzamiento al mercado de un EP de título "Popestar" y en tabs fáciles hemos querido hacernos eco de la noticia lanzando un momento en tablatura del tema con el que lo han presentado mundialmente, "Square Hammer."
  Del que esperamos como siempre que os guste y disfrutéis.
  Un saludo.
  TabsFácil.





Square Hammer. Ghost.


   (0:15)

1.----------------------------------|
2.----------------------------------|
3.----------------------------------|
4.-7-----------5-5-5-5-5---7--------|
5.-5---8---7---3-3-3-3-3---5---8---7
6.-----6---5-------------------6---5

1.----------------------------------|
2.----------------------------------|
3.----------------------------------|
4.-5-5-5-5-5---7-----------5-5-5-5-5
5.-3-3-3-3-3---5---8---7---3-3-3-3-3
6.-----------------6---5------------|

1.------------------------|
2.------------------------|
3.------------------------|
4.-7-----------5-5-5-5-5--|
5.-5---8---7---3-3-3-3-3--|
6.-----6---5--------------|...

(0:41)

1.---------------------------------------|
2.---------------------------------------|
3.-----9-10----9-10---9-10----9-10-------|
4.-/12------/8------7------10------10-12
5.---------------------------------------|
6.---------------------------------------|...

(1:00) Estribillo.

1.-------------------------------|
2.-------------------------------|
3.--------------5----------------|
4.-7------2-3-5---------5--------|
5.-5---8------------3---3------3-|
6.-----6------------1------3-5---|

1.-----------------------------------|
2.-----------------------------------|
3.-----------------------------------|
4.-7------------------------5--------|
5.-5---8----3-3-3-3-3-3-3---3------3-|
6.-----6----1-1-1-1-1-1-1------3-5---|

(2:35) Solo.

1.------------------------------------|
2.---------------------10-------------|
3.-----5-7---9---10-------7----7h5h7h5
4.-5h7-----7---7----7-----------------|
5.--------------------------/---------|
6.------------------------------------|

1.------------------------------------|
2.------------------------------------|
3.--5-7--7----5h7h5h7h5---5--7(9)(7)(9)
4.-7--------7-----------7-------------|
5.------------------------------------|
6.------------------------------------|...




No hay comentarios:

Publicar un comentario en la entrada