.

banners

Tablatura fácil de... Cambia el mundo. Saurom.


  Grupos como Saurom demuestran el gran nivel del metal nacional. Un grupo de grandes músicos que se supera a cada disco que hace.
  En el 2012 lanzaba su séptimo disco "Vida" un disco más folk que los antecesores del que lanzaron como primer sencillo "Cambia el mundo" del que hoy en tablaturas fáciles os queremos dejar un momento en tablatura.
  Un saludo.
  TabsFácil.






Cambia el mundo. Sauron.


(Flauta)
1.------------------------------------------
2.-----------8------------------------------
3.---9-9-7-9---9-7-7----9-9-7---------------
4.-7------------------7-------10-9-10-9-7---
5.----------------------------------------10
6.------------------------------------------

1.------------------------------------------
2.-----------8------------------------------
3.---9-9-7-9---9-7-7------------------------
4.-7-------------------5-7-9-7-5------------
5.--------------------------------7---------
6.------------------------------------------

 1.------------------------------------------
2.-----------8------------------------------
3.---9-9-7-9---9-7-7----9-9-7---------------
4.-7------------------7-------10-9-10-9-7---
5.----------------------------------------10
6.------------------------------------------


 1.-----------------------
2.-----------8------------
3.---9-9-7-9---9-7-7------
4.-7----------------------
5.------------------------
6.------------------------

(guitarra)
1.---------------------------------------------
2.---------------------------------------------
3.---------------------------------------------
4.---------------------------------------------
5.-7---5---7-7---3-5---7-7---3-5---7-7---3-5---
6.-5---3---5-5---1-3---5-5---1-3---5-5---1-3---

1.--------------------------------
2.--------------------------------
3.--------------------------------
4.--------------------------------
5.-3-3-3-3-3-3-3-3---5-5-5-5-5-5-5
6.-1-1-1-1-1-1-1-1---3-3-3-3-3-3-3


(flauta que suena al mismo tiempo)
1.----------------------------5---------------------
2.-----5---8-6-5--------5---8---8--------5---8-6-5--
3.-5h7---5-------7--5h7---5-------7--5h7---5-------7
4.--------------------------------------------------
5.--------------------------------------------------
6.--------------------------------------------------
                    “Un dia mas…
1.-----------------
2.-----------------
3.---5-4-5---7-9-7-
4.-----------------
5.-----------------
6.-----------------

(guitarra)     “…Esta tierra…”
1.------------------------------|-3 veces---|----
2.------------------------------------------|----
3.------------------------------------------|----
4.------------------------------------------|----
5.-7-7---7-7---7-7---7-7---3-3-3-3--5-5-5-5-|-3-5
6.-5-5---5-5---5-5---5-5---1-1-1-1--3-3-3-3-|-1-3

Estribillo.    “…Cambia el mundo”…
1.--------------------------2 veces-----------
2.--------------------------------------------
3.--------------------------------------------
4.---------------5-------------------5-5------
5.---7-7---3-3---3---5---7-7---3-3---3-3---5-5
6.---5-5---1-1-------3---5-5---1-1---------3-3


1.------------------------------------------------
2.------------------------------------------------
3.-----2-------------------------------2----------
4.-----0---2---------5-------------0---2---------5
5.-3-------0---5-3---3---7---5-3-------0---5-3---3
6.-1-----------3-1-------5---3-1-----------3-1----

1.---------------------2 veces--------------------
2.------------------------------------------------
3.-----------2-2-2-2-2-2-----------------------2--
4.-----------0-0-0-0-0-0-----------------------0--
5.-7--2--4----------------2-2-2-2-2-2-2--7-2-4---2
6.-5--0--2----------------0-0-0-0-0-0-0--5-0-2---0

(violin)
1.-9----9-10-9----9-10-9----9-10-9----9-10---
2.---10--------10--------10--------10--------
3.-------------------------------------------
4.-------------------------------------------
5.-------------------------------------------
6.-------------------------------------------

1.-17-16-------17-16-------17-16------
2.-------17-14-------17-14-------17-14
3.------------------------------------
4.------------------------------------
5.------------------------------------
6.------------------------------------

1.-9----9-10-9----9-10-9----9-10-9----9-10---
2.---10--------10--------10--------10--------
3.-------------------------------------------
4.-------------------------------------------
5.-------------------------------------------
6.-------------------------------------------

1.---/9------------
2.------12-10------
3.------------14-13
4.-----------------
5.-----------------
6.-----------------

 1.-9----9-10-9----9-10-9----9-10-9----9-10---
2.---10--------10--------10--------10--------
3.-------------------------------------------
4.-------------------------------------------
5.-------------------------------------------
6.-------------------------------------------

1.-17-16-------17-16-------17-16------
2.-------17-14-------17-14-------17-14
3.------------------------------------
4.------------------------------------
5.------------------------------------
6.------------------------------------


1.-9----9-10-9----9-10-9----9-10-9----9-10---
2.---10--------10--------10--------10--------
3.-------------------------------------------
4.-------------------------------------------
5.-------------------------------------------
6.-------------------------------------------


1.---9-9-9-9---9-9-9---9-9-9-------16-17-
2.------------------------------19-------
3.---------------------------------------
4.---------------------------------------
5.---------------------------------------
6.---------------------------------------


No hay comentarios:

Publicar un comentario en la entrada