.

banners

Tablatura fácil de... Al turrón! Bürdel King.



  Ya está en la calle el adelanto del nuevo disco de los Bürdel King. El tema que han escogido para presentar "Si dios está en todas partes, fuego a discreción" se llama "Al turrón" y como no podía ser de otra manera os queremos dejar en Tablaturas fáciles unos momentos en tablatura que esperamos como siempre, que os guste y disfrutéis.
  Un saludo.
  TabsFácil.



Tablatura fácil de...Al turrón!!. Burdel King.


Guitarra 1.

1.---------------------------------------|
2.-----------------/6-4------------------|
3.--------5-7-5---------7----------5-7-5-|
4.-/5-7-8------------------5-7-8-8-------|
5.--------------8------------------------|
6.---------------------------------------|

Guitarra 2.

1.---------------------------------------|
2.---------------------------------------|
3.---------------------2--3--------------|
4.----3----------------0--1--------------|
5.----1------3------5-----------3--------|
6.-----------1------3-----------1--------|

Guitarra 1.

1.---------------------------------------|
2.---------------------------------------|
3.------7-7--8-7-------------5-7-5-5-----|
4.-8h10----------10--5-7-8-8---------8-7-5
5.---------------------------------------|
6.---------------------------------------|

Guitarra 2.

1.---------------------------------------|
2.---------------------------------------|
3.--------------------3------------------|
4.--3-----------------1------------------|
5.--1-----------3------------3------5----|
6.--------------1------------1------3----|




1.----------------------/13-11-----------|
2.----------13-15-13-----------15--------|
3.-12-14-15------------------------12-14-|
4.-------------------15------------------|
5.---------------------------------------|
6.---------------------------------------|

1.--------------------------11-----------|
2.----13-15-13--11-13-15-15----15-13-----|
3.-15--------------------------------12-14
4.---------------------------------------|
5.---------------------------------------|
6.---------------------------------------|

1.----------------------------|
2.-------13-15-13-13----------|
3.-15-15-------------15-14-12-|
4.----------------------------|
5.----------------------------|
6.----------------------------|

                     "Hoy hay luna llena...
      
1.-----------------------------------------|
2.-1/3-1---1------------------------------6
3.-------0---3-0-------7-----7-----5----5--|
4.-------------------5-----5-----5----3----|
5.-----------------5------5-----3----------|
6.-----------------------------------------|...



No hay comentarios:

Publicar un comentario en la entrada