.

banners

Acordes y Tablatura fácil de...Vida. Saurom.


 Un grupazo se mire por donde se mire. Para mi se reinventan cada vez que sacan un disco y eso los hace mas atractivos si cabe. Poco más puedo decir lo mejor es escucharlos y disfrutar de ellos y de los tabs fáciles que puedes encontrar aquí. Hoy también con los acordes del tema "Vida".
 Un saludo.
 TabsFácil.





   Vida. Saurom.



1.-----------------------------------------------
2.----3-------11-------10----11h10----13------11-
3.-10---10-10----10-10----10-------10----10-10---
4.-10--------------------------------------------
5.-----------------------------------------------
6.-----------------------------------------------


1.------------------------------------------------
2.------10---11h10----13------11-------10----11h10
3.-10-10---10-------10---10-10----10-10----10-----
4.------------------------------------------------
5.------------------------------------------------
6.------------------------------------------------


1.------------------------------------
2.------13-------11-------10----11h10-
3.---10----10-10----10-10----10-------
4.------------------------------------
5.------------------------------------
6.------------------------------------


Rem           La#m             Fa                  Do
Hoy paseaba hablando con ella en nuestra triste realidad.

Rem              La#m                      Fa
En la distancia brillaba su estrella y me susurraba ante

Do
el mar:

Rem                 La#m
Si me escucharas… ¡ay cuanto te extraño!

Fa                  Do       Rem
No sufras te invito a vivir… Ve y aprovecha

La#m                 Fa                       Do
todos los momentos, ¡que el mundo disfrute de ti!

Fa           La#m    Fa          La#m
Juro que te sueño, juro que mi sueño…

Fa               Do     Fa         La#m
¡se hará hoy realidad! Juro no rendirme

Fa               La#m    Fa             Do
juro ser más fuerte… ¡y llegar hoy más allá!

Fa     Do    Fa    La#m
¡Vida, vida, vida, aquí estoy!

Fa       Do     Fa   La#m   Rem  La#m  Fa  Do
¡La vida, vida… vida estoy…





Rem                    La#m            Fa
… Y no existe nada más importante que aprender

                 Do
a creer en ti, a creer en mi.

Rem                    La#m
Nunca temas a perder, no te quiero ver llorar.

Fa                Do
Antes de morir siempre hay vida…

Rem       Fa   Do   Fa
Y es hoy.


No hay comentarios:

Publicar un comentario en la entrada