.

banners

Acordes y Tablatura fácil de... Pídeme. Antonio Orozco.



  De su disco de Platino "Destino," Antonio Orozco vuelve a a lanzar single con video incluido como no. Ésta vez le toca el turno al tema "Pídeme" del que aquí en Tablaturas fáciles te queremos dejar unos momentos en tablatura y acordes que esperamos que os gusten y disfrutéis con el tema.
  Un saludo.
  TabsFácil.






Acordes y Tablatura fácil de... Pídeme. Antonio Orozco.


1.-------------------------------|
2.-------------------------------|
3.-------------------------------|
4.-------------------------------|
5.-9-9-9-9-9-9-9-9-9-9-9-9-9-9-9-|
6.-------------------------------|

Soy capaz de no pensar
1.-------------------------------|
2.-------------------------------|
3.-------------------------------|
4.-------------------------------|
5.-9-9-9-9-9-9-9-9-9-9-9-9-9-9-9-|
6.-------------------------------|

y de saber que lo he encontrado
1.-------------------------------|
2.-------------------------------|
3.-------------------------------|
4.-------------------------------|
5.-9-9-9-9-9-9-9-9-9-9-9-9-9-9-9-|
6.-------------------------------|

Podría estar, si es por buscar
1.-------------------------------|
2.-------------------------------|
3.-------------------------------|
4.-------------------------------|
5.-9-9-9-9-9-9-9-9-9-9-9-9-9-9-9-|
6.-------------------------------|

alguien igual 200 años
1.-------------------------------|
2.-------------------------------|
3.-------------------------------|
4.-------------------------------|
5.-9-9-9-9-9-9-9-9-9-9-9-9-9-9-9-|
6.-------------------------------|

sin comparar, sin despreciar,
 1.-------------------------------|
2.-------------------------------|
3.-------------------------------|
4.-------------------------------|
5.-9-9-9-9-9-9-9-9-9-9-9-9-9-9-9-|
6.-------------------------------|

sin más que el decorado
1.-------------------------------|
2.-------------------------------|
3.-------------------------------|
4.-------------------------------|
5.-9-9-9-9-9-9-9-9-9-9-9-9-9-9-9-|
6.-------------------------------|

No iré a buscar, no iré por más
1.-------------------------------|
2.-------------------------------|
3.-------------------------------|
4.-------------------------------|
5.-9-9-9-9-9-9-9-9-9-9-9-9-9-9-9-|
6.-------------------------------|

si alguien pasó se me ha olvidado
1.-------------------------------|
2.-------------------------------|
3.-------------------------------|
4.-------------------------------|
5.-9-9-9-9-9-9-9-9-9-9-9-9-9-9-9-|
6.-------------------------------|

Sabes igual que yo que no es la suerte
1.-------------------------------|
2.-------------------------------|
3.-------------------------------|
4.-------------------------------|
5.-4---------------------------9-|
6.-------------------------------|

la que nos vino así de repente
1.-------------------------------|
2.-------------------------------|
3.-------------------------------|
4.-------------------------------|
5.---------8------------------2--|
6.-------------------------------|

Y entiende que esto es amor
1.-------------------------------|
2.-------------------------------|
3.-------------------------------|
4.-------------------------------|
5.---4---------------------------|
6.-------------------------------|

que no te inventen
1.-------------------------------|
2.-------------------------------|
3.-------------------------------|
4.-------------------------------|
5.------------9------------------|
6.-------------------------------|

Cuando no quieren el resto es presente
1.-------------------------------|
2.-------------------------------|
3.-------------------------------|
4.-------------------------------|
5.------------8----------------2-|
6.-------------------------------|

ahora escucha y...

Si                    Do#                    Re#m
Pídeme, que tengo de oferta lo eterno

                            Si
Regalo millones de besos

      Do#                     Re#m    Fa#m
Y cuentos que tienen final

Si                    Do#                    Re#m
Pídeme, que doy la amistad con descuento

              Si             Do#          Re#m      Fa#m
Abrazos al 30% y olvidos a cuarto y mitad

Si                    Do#                    Re#m
Pídeme y no tengas vergüenza en hacerlo

                              Si          Do#
Que el único margen que tengo

No es nada que puedas comprar...


(1:22)

1.---------------------------------|
2.---------------------------------|
3.-<4---<6---<8---4-4-4-4--6-6-6-6-
4.---------------------------------|
5.---------------------------------|
6.---------------------------------|

1.---------------------------------|
2.---------------------------------|
3.-8-8-8-8--8--8-6-8-6-8---4-4-4-4-
4.---------------------------------|
5.---------------------------------|
6.---------------------------------|

1.---------------------------------|
2.---------------------------------|
3.-6-6-6-6---8-8-8-8--8--8-6-8-6-8-
4.---------------------------------|
5.---------------------------------|
6.---------------------------------|

1.---------------------------------|
2.---------------------------------|
3.-4-4-4-4---6-6-6-6---8-8-8-8--8--
4.---------------------------------|
5.---------------------------------|
6.---------------------------------|

1.---------------------------------|
2.---------------------------------|
3.-8-6-8-6-8---4-4-4-4---6-6-6-6---
4.---------------------------------|
5.---------------------------------|
6.---------------------------------|

                                                             (1:57)

1.----------------------------2---2
2.--------------------------2---2--|
3.-8-8-8-8--8--8-6-8-6-8-----------|
4.------------------------6--------|
5.------------------------4--------|
6.---------------------------------|

1.---2------------2---2-----2------|
2.-0------------2---2-----0--------|
3.---------------------------------|
4.-------4---6------------------4--|
5.-------2---4------------------2--|
6.---------------------------------|

1.---------------------------------|
2.---------------------------------|
3.---------------------------------|
4.-4-4-4-4-4-4-4-4---4---6---8-----|
5.-2-2-2-2-2-2-2-2---2---4---6-----|
6.---------------------------------|...




No hay comentarios:

Publicar un comentario en la entrada