.

banners

Acordes de...Ae dil hai mushkil. Ariijit Sing.



  Uno de los tantos estrenos de la industria "Bollywood" Ae dil hai mushkil en este caso muy esperado, incluso la banda sonora interpretada por  Arijit Sing que arrasa en las listas americanas entre otras. A pesar de lo poco que conocemos del artista y de su obra, aquí en tablaturas fáciles os queremos dejar unos momentos en tablatura, mejor dicho unos acordes del estribillo para que disfrutéis todos los que os guste el tema.
  Un saludo.
  TabsFácil.




Ae dil hai mushkil. Ariijit Sing.



 (Piano).
                              Tu Safar Mera 
1.---6-4---------------------6-4----------|
2.-------7-6--4-6--4-7--4--------7-6--4-6-|
3.------------------------8---------------|
4.----------------------------------------|
5.-6--------------------------------------|
6.----------------------------------------|

 Hai Tu Hi Meri Manzil     Tere Bina Guzara
1.-----------6-4--------------------|
2.-4-7--4--------7-6--4-6--4-7--4---|
3.--------8-----------------------8-|
4.----------------------------------|
5.----------------------------------|
6.----------------------------------|...





   Re#m       SiM    Sol#m  La#m
...Mujhe Aazmaati Hai Teri Kami

Re#m      SiM       Sol#m  La#m
Meri Har Kami Ko Hai Tu Laazmi...






Re#m      
...Yeh rooh bhi meri

  SiM
yeh mera jism bhi

Sol#m
utna mera nahi

La#m
tera jitna hua

Re#m 
tune diya hai jo

SiM 
woh dard hi sahi

Sol#m
toh tujshe mila hai

La#m
mera inaam hai...





Más tablaturas de...Ariijit Sing.

No hay comentarios:

Publicar un comentario