.

banners

Tabs fácil de...Sodomites. Soulfly.



  "Archangel" llevaba por título el último trabajo de Soulfly que salía al mercado un 14 de Agosto. Uno de los temas que eligieron de adelanto y presentación fue "Sodomites" del que os quiero dejar unos momentos en tablatura que, espero como siempre, que os guste y disfrutéis.
  Soulfly en tablaturas fáciles.
  Un saludo.
  TabsFácil.





Sodomites. Soulfly.



(0:20)
1.-------------------------------
2.-------------------------------
3.-------------------------------
4.-------------------------------
5.--5h6h5--5--5h6h5--5--5h6h5--5-
6.-------------------------------

1.--------------------------------
2.--------------------------------
3.--------------------------------
4.--------------------------------
5.--4-(5)(4)-4--5h6h5--5--5h6h5--5
6.--------------------------------

1.-----------------------
2.-----------------------
3.-----------------------
4.-----------------------
5.--5h6h5--5--4-(5)(4)-4-
6.-----------------------...

(0:40)
1.----------------------------------
2.----------------------------------
3.----------------------------------
4.--------------------------4-5-----
5.--7-7--5-6--7-7--5-6--5-6------7-7
6.--5-5-------5-5----------------5-5

1.----------------------------------
2.----------------------------------
3.------------------3-2-------------
4.----------------5-----------------
5.--5-6--7-7--5-6-------7-7--5-6--7-
6.-------5-5------------5-5-------5-

1.----------------------------------
2.----------------------------------
3.----------------------------------
4.--------------4-5-------5-6-------
5.--7--5-6--5-6------7-7-------7-7--
6.--5----------------5-5-------5-5--


1.-----------
2.-----------
3.------3-2--
4.-----5-----
5.--5-6------
6.-----------...


Más tablaturas de... Soulfly.

No hay comentarios:

Publicar un comentario en la entrada