.

banners

Tabs fácil de...Hugs, drawn and quartered. Accept.


    
Hoy en Tablaturas fáciles el tema que da comienzo al 13º disco de la banda de origen alemán, Accept  y que salía allá por el 2012. Poco más que decir que no sea disfrutar y aprender con el heavy de esta banda.
  Un saludo.
  TabsFácil.







Hugs, drawn and quartered. Accept.

1.--------------------------------------------------
2.--------------------------------------------------
3.----4-6-7-6h7h6h4---4-6-7-6---4-6-7-6h7h6h4-------
4.-/4---------------7---------4---------------7-7h9-
5.--------------------------------------------------
6.--------------------------------------------------

1.-------------------------------------------------
2.---/7-5--------------/7-5---7---/7-5-------------
3.--------7-6h7h6h4---------7----------7-6-----/11-
4.------------------7----------------------9-7-----
5.-------------------------------------------------
6.-------------------------------------------------

1.--------------------------------------------------
2.--------------------------------------------------
3.--------------------------------------------------
4.--------------------------------------------------
5.---/2-------------------------------------2-------
6.------3-0-2-2-2-2-2-2-2---3-0-2-2-2-2-2-2---3-0-2-

1.-------------------------
2.-------------------------
3.-------------------------
4.-------------------------
5.-------------------------
6.---2-2-2-2-2-2---0-3-2---

Más tablaturas de...Accept.

No hay comentarios:

Publicar un comentario en la entrada