.

banners

Tabs fácil de... Sacrifice. Amorphis.



  Pues sí, lo reconozco acabo de descubrir a esta banda, Amorphis, y aunque solamente he escuchado este tema "Sacrifice" me he quedado con ganas de escuchar mucho más, no sólo de su último trabajo "Under the red cloud" sino de todo lo anterior, que es mucho.
  Y aunque el tema en cuestión tiene un solo muy apetecible para sacar una tablatura, de momento, os dejo un momento del inicio, que espero que os guste y disfrutéis. 
  Amorphis, en Tablaturas fáciles.
  Un saludo.
  TabsFácil.








Sacrifice. Amorphis.

1.--3------3-5-6-5-3--5-3-------3-5-6-

2.----3-------------------3---3-------
3.------0-------------------0---------
4.------------------------------------
5.------------------------------------
6.------------------------------------

1.--5-3-------3-5-6-5-3--5-3----------

2.------3---3----------------3--6-3---
3.--------0-------------------------3-
4.------------------------------------
5.------------------------------------
6.------------------------------------

1.----------------------------

2.--6-3---6-3-----------------
3.------3-----5-2---5-2---5-2-
4.----------------3-----3-----
5.----------------------------
6.--------------------------...


Más tablaturas de... Amorphis.

No hay comentarios:

Publicar un comentario