.

banners

Tabs Fácil de... Hardwired. Metallica.



    Ocho años nada más y nada menos que hemos tenido que esperar para el regreso de Metallica con nuevo material y, aunque la salida del disco que llevará por título "Hardwired... to self-destruct"  será para mediados de Noviembre, ya tenemos adelanto con video clip incluído. Y de ese adelanto ya puedes disfrutar unos momentos en tablatura fácil.
  "Harwired" el single adelanto de lo nuevo y esperado de los americanos, Metallica, en Tablaturas fáciles.
  Un saludo.
  TabsFácil.





Hardwired. Metallica.

1.------------------------------------|
2.------------------------------------|
3.------------------------------------|
4.------------------------------------|
5.------------------------------------|
6.-0-0-0--0-0-0--0-0-0--0-0-0--0-0-0--|...

(0:16)
1.---------------------------------------|
2.---------------------------------------|
3.---------------------------------------|
4.---------------------------------------|
5.-------------------------------9-8-8-7-|
6.-7-6---7-6---7-6-6-5--7-6-6-5--7-6-6-5-|

1.---------------------------------------|
2.---------------------------------------|
3.---------------------------------------|
4.---------------------------------------|
5.-9-8-8-7--9-8-8-7-9-8-8-7--------------|
6.-7-6-6-5--7-6-6-5-7-6-6-5--3-5-6-5-3-5-|

1.--------|
2.--------|
3.--------|
4.--------|
5.-2--9-8-|
6.-0--7-6-|...

1.----------------------------------------|
2.----------------------------------------|
3.----------------------------------------|
4.----------------------------------------|
5.----------------------2-----------------|
6.-7-6-6-5--3-5-6-5-3-5-0--7-6-6-5--3-5-6-|

1.------------------------------------------|
2.------------------------------------------|
3.------------------------------------------|
4.------------------------------------------|
5.--------2-----------------------2---------|
6.-5-3-5--0--7-6-6-5--3-5-6-5-3-5-0--7-6-6-5|

1.--------------------------|
2.--------------------------|
3.--------------------------|
4.--------------------------|
5.--------------7-7-7-7--2--|
6.-3-5-6-5-3-5--5-5-5-5--0--|


(1:00)

1.----------------------------------|
2.----------------------------------|
3.----------------------------------|
4.----------------------------------|
5.-7---8---3--7---8---3--7---3-3--5-|
6.-5---6---1--5---6---1--5---1-1--3-|...


(1:42)

1.----------------------------------------|
2.----------------------------------------|
3.----------------------------------------|
4.----------------------------------------|
5.-/7-----------/7-----------/7---------8-|
6.----5-6-3-5-0----5-6-3-5-0----5-6-3-5-6-|

1.----------------------------------------|
2.----------------------------------------|
3.----------------------------------------|
4.----------------------------------------|
5.------------2--/7-----------/7----------|
6.-5-3-5-3--1-0-----5-6-3-5-0----5-6-3-5-0

1.---------------------------|
2.---------------------------|
3.---------------------------|
4.---------------------------|
5.-/7---------8---8--7--5--2-|
6.---5-6-3-5--6---6--5--3--0-|...






Más tablaturas de...Metallica.

No hay comentarios:

Publicar un comentario en la entrada