.

banners

Tabs fácil de... Final journey. Accept.






Final journey. Accept.



1.--------------------------------------------------
2.--------------------------------------------------
3.----------------5----------------0-3-2------------
4.--------------8---8-7-----------------------------
5.--------------------------------------------------
6.-5-5---5-5-5----------3-3--3-3-3--------5-5--5-5-5


1.------------------------
2.------------------------
3.-----5------------------
4.---8---8-7--------------
5.------------------4-5-7-
6.------------3-1-0-------. . .


(0:22)

1.-------------------------------------------------
2.-------------------------------------------------
3.-------------------------------------------------
4.---------------------3-5-7/----------------------
5.-7---8h5-7---5h7---7---------7--8h5-7--5h7--7--3-
6.-----------------------------------------------1-




(3:01) Guitarra rítmica.

1.-------------------------------------------------
2.-------------------------------------------------
3.-----5-4-----------------5-4---------------------
4.-7-5-----7-7-5-9-7-5-7-5-----7--0-2-3-2h3h2h0----
5.----------------------------------------------3-0
6.-------------------------------------------------




1.--------------------------------------------------
2.--------------------------------------------------
3.-----5-4------------------5-4--------------------2
4.-7-5-----7-7-5-9-7-5--7-5-----7-0-2-3--2h3h2h0---0
5.------------------------------------------------3-
6.--------------------------------------------------




(3:20)

1.--------------------------------------------------
2.--------------------------------------------------
3.-7-------------------7-------------------7---7-8--
4.---9-7-5---7---5h7h9---9---7h9h7h5---7h9---9-----9
5.--------------------------------------------------
6.--------------------------------------------------




1.-------------
2.-------------
3.---8-7-------
4.-------9-7-5-
5.-------------
6.------------. . .



(3:43)

1.---------------------------------------------------
2.-11-----------------11-----------------------11----
3.----12-10-8---10-12----12---10h12h10h8---/12----12-
4.---------------------------------------------------
5.---------------------------------------------------
6.---------------------------------------------------




1.----------------------------
2.---11-13-----13-13----------
3.---------12--------13-12-10-
4.----------------------------
5.----------------------------
6.--------------------------. . .

Más tablaturas de...Accept.

No hay comentarios:

Publicar un comentario