.

banners

Tabs fácil de... Fall of the empire. Accept.




Fall of the empire. Accept.

1.------------------------------------
2.------------------------------------
3.------------------------------------
4.------------------------------------
5.-------------2/3\2--------0h2h0-----
6.---//-0--0-0-------0--0-0-------3h0-

1.----------------------------
2.----------------------------
3.----------------------------
4.------------------------2---
5.-------2/3\2------5-----0---
6.---0-0-------0-0--3-0-0---0-

1.-------------------------------------
2.-------------------------------------
3.-------------------------------------
4.-------------------------------------
5.---------2/3\2--------0h2h0----------
6.--0--0-0-------0--0-0-------3h0--0-0-

1.---------------------
2.---------------------
3.---------------------
4.---------------------
5.--2/3\2------4--5----
6.--------0-0--2--3--0-...

  (1:36)
1.-------------------------------------
2.-------------------------------------
3.---/5-4-2-4-----2----------/5-4-2-4--
4.------------2-2---5-4-5--2----------2
5.-------------------------------------
6.-------------------------------------

1.-------------/8-10-8-7-----5---------
2.-----------------------5-5---8-7-8--5
3.----2--------------------------------
4.--2---5-4-2--------------------------
5.-------------------------------------
6.-------------------------------------

1.-/8-7-5-7-----5----------
2.----------5-5---8-7--7/8-
3.-------------------------
4.-------------------------
5.-------------------------

6.------------------------...

Más tablaturas de...Accept.

No hay comentarios:

Publicar un comentario