.

banners

Tabs fácil de... Dreaming of black waves. Hangar.


   Otro temazo de la banda brasileña  Hangar 
incluido en su último trabajo, los de Aquiles Preister reúnen en su último plástico temas nuevos y una colección de los mejores temas de la banda. En Tablaturas fáciles no podía faltar este "Dreaming of black waves" de lo mejore de la banda.
  Un saludo.
  TabsFácil.







Dreaming of black waves. Hangar.

(guitarra solista)
1.--------------------------------------------------------
2.---------------------------------------------------------
3.-10(11)(10)-8-10-11-10(11)(10)-8-------10(11)(10)-8-10-11
4.---------------------------------11-11-------------------
5.---------------------------------------------------------
6.---------------------------------------------------------


1.------------------------------------------
2.---------------------------------------11-
3.-10(11)(10)-8-10-------10(11)(10)-8-10----
4.-----------------11-11--------------------
5.------------------------------------------
6.------------------------------------------


(guitarra ritmica)
1.------------------------------------------------------
2.------------------------------------------------------
3.------------------------------------------------------
4.---------------4-4--4-4-4--4-6-6--6-6-6--6------------
5.-4-4--4-4-4--4-2-2--2-2-2--2-4-4--4-4-4--4-6-6---6-6-6
6.-2-2--2-2-2--2-----------------------------4-4---4-4-4


1.----------------
2.----------------
3.----------------
4.-4-4------------
5.-2-2---1-2-1-4-4
6.-------------2-2



1.---------------------------------------------------------
2.---------------------------------------------------------
3.---------------------------------------------------------
4.---4-4--4-4-4--4-6-6---6-6-6--6--------------4-4--------4
5.-4-2-2--2-2-2--2-4-4---4-4-4--4-6-6---6-6-6--2-2--1-2-1-2
6.-2------------------------------4-4---4-4-4--------------

Más tablaturas de...Hangar.

No hay comentarios:

Publicar un comentario