.

banners

Tabs fácil de... Don't let me down ft. Daya. The Chainsmokers.



   Estos dos Dj's de Nueva York están pegando fuerte en todas las listas del mundo con su estilo tan peculiar y ocurrente. Aprovechando la llegada a las listas españolas de este "Don't let me down" os quiero dejar en tablatura para guitarra lo que vendría a ser el riff principal del tema, si se tocase con la guitarra claro.
   The Chainsmokers en Tablaturas fáciles.
   Un Saludo.
   TabsFácil.



Don't let me down ft. Daya. The Chainsmokers.

1.----------11-11-11--------------------------|
2.-9--9-7-----------11--11--11--11/12--12--11-|
3.--------------------------------------------|
4.--------------------------------------------|
5.--------------------------------------------|
6.--------------------------------------------|

(0:41)
1.---------------------------------|
2.---------------------------------|
3.--------8-8-8--------------------|
4.-6--6-4-------8--8--8--8/9--9--8-|
5.---------------------------------|
6.---------------------------------|




Más tablaturas de...

No hay comentarios:

Publicar un comentario