.

banners

Tabs fácil de... Believer. Almah.




  Impresionante banda brasileña que rebosa virtuosismo por los cuatro costados. Me es muy difícil sacar tablaturas de bandas como esta pero bueno, he conseguido plasmar algunos momentos en tablatura para esta web de uno de los temas pertenecientes a su trabajo "Unfold".
   Almah en tabsfacil.es
   
  Un saludo.
  Tabsfácil.




Believer. Almah.


1.-------------------------------------------------
2.-------------------------------------------------
3.-------------------------------------------------
4.-4-3-1-6---4h3h4h3--4h3-/1--4-3-1-3-4--4-3-1-3-4-
5.-------------------------------------------------
6.-------------------------------------------------

(1:10)   ..."Believer..."
1.-----------------------------------------------
2.-----------------------------------------------
3.-----------------------1-----------------------
4.-------6---5---3---1-3---3-1-3-------6---5---3-
5.---3---4---3---1-----------------3---4---3---1-
6.---1-----------------------------1-------------

1.-----------------------------
2.-----------------------------
3.---/3---1---0---1---3---1----
4.---------------------------3-
5.-----------------------------
6.-----------------------------. . .

Más tablaturas de...Almah.

No hay comentarios:

Publicar un comentario en la entrada