.

banners

Tabs fácil de... Ababol. Dikers.



     "Ababol" es el título del primer corte perteneciente al nuevo y esperado disco de Dikers, de los que había pasado mucho tiempo sin saber nada de ellos, debido seguramente, a los proyectos en paralelo de sus componentes.
  Un disco en general que me ha gustado mucho, un sonido muy cañero y unas ideas muy claras, así definiría en pocas palabras a esta banda.
  Como decía, os quiero dejar unos momentos en tablatura del tema, en concreto del incio, con el que comienza el álbum que, como siempre, espero que os guste y disfrutéis.
  Un saludo.
  TabsFácil.






Ababol. Dikers.

1.-------------------------------------
2.-------------------------------------
3.-------------------------------------
4.-/9-9-9-9--8-8-8-8--11-11-11-11--8-8-
5.-------------------------------------
6.-------------------------------------

1.-------------------------------------
2.-------------------------------------
3.-------------------------------------
4.-8-8--/9-9-9-9--8-8-8-8--------------
5.------------------------9-9-9--7-7-7-
6.-------------------------------------

1.-------------------------------------
2.-------------------------------------
3.-------------------------------------
4.-/9-9-9-9--8-8-8-8--11-11-11-11--8-8-
5.-------------------------------------
6.-------------------------------------

1.-------------------------------------
2.-------------------------------------
3.-------------------------------------
4.-8-8--/9-9-9-9--8-8-8-8--------------
5.------------------------9-9-9--7-7-7-
6.----------------------------------...


1.------------------------------
2.------------------------------
3.------------------------------
4.---------------------6--6-6-6-
5.-6--6-6-6--2--2-2-2--4--4-4-4-
6.-4--4-4-4--0--0-0-0-----------

1.------------------------------
2.------------------------------
3.------------------------------
4.---------------------6--6-6-6-
5.-6--6-6-6--2--2-2-2--4--4-4-4-
6.-4--4-4-4--0--0-0-0---------...

Más tablaturas de...Dikers.

No hay comentarios:

Publicar un comentario