.

banners

Tablatura fácil de...Pretencioso. Dikers.



    "Vértigo" lleva por título el último trabajo de Dikers, después de 3 añitos de sequía discográfica, que salió el 6 de Noviembre del año pasado.
   Unos días antes salía el videoclip oficial para el tema "Pretencioso" del que os quiero dejar como siempre, unos momentos en tablatura fácil que, espero que os guste y disfrutéis.
   Regresa Dikers a tablaturas fáciles.
  Un saludo.
  TabsFácil.






Pretencioso. Dikers.

   (1:22)
1.----------------------------------
2.----------------------------------
3.--6h8-6-8---8-6-8---8-6-8---------
4.----------7-------7-------7-6-4---
5.--------------------------------6-
6.----------------------------------

1.----------------------------------
2.----------------------------------
3.----------------------------------
4.--4-6-4----5-3-5--5-3-5--5-3-5-3--
5.--------6-------------------------
6.----------------------------------


1.----------------------------------
2.----------------------------------
3.----------------------------------
4.--5-3-5-9-9-9-9-9-9-9-8-8-8-8--6-6
5.----------------------------------
6.----------------------------------


1.----------------------------------
2.----------------------------------
3.----------------------------------
4.--5-3-5--5-3-5--5-3-5-3-5-3-5--9-9
5.----------------------------------
6.----------------------------------


1.----------------------------------
2.----------------------------------
3.----------------------------------
4.--9-9-9-9-9-9-8-8-8-6--6-6-----5-5
5.----------------------------8--3-3
6.----------------------------6-----


1.----------------------------------
2.----------------------------------
3.----------------------------------
4.--5-5-5-5-5-5--6-6-6-6-6-6-6------
5.--3-3-3-3-3-3--4-4-4-4-4-4-4--4h6-
6.----------------------------------


1.------------------------------
2.------------------------------
3.------------------------------
4.------------------------------
5.--4-6---6-4-6---6-4-6---6-4-6-
6.------5-------5-------5-----...

Más tablaturas de...Dikers.

No hay comentarios:

Publicar un comentario