.

banners

Tablatura fácil de... Stampede. Accept.


   Una de esas bandas con la que seguro que disfrutas mientras aprendes a tocar la guitarra y es por eso que no pueden faltar sus temas en Tablaturas fáciles.  En esta ocasión con el tema que daba comienzo a su último plástico que llevaba por nombre "Blind rage". Así que, no se hable más enchufa la guitarra y a disfrutar con Accept y su "Stampede."
  Un saludo.
  TabsFáciles.




Stampede. Accept.

1.----------------------------------------
2.----------------------------------------
3.-----5-4-------5-4-----5-4--------------
4.---7-----6---7-------7-----6------------
5.------------------------------7(8)(7)-7-
6.----------------------------------------. . . 


(0:50)
1.----------------------------------
2.----------------------------------
3.---9---7-9-----------9----7-9-----
4.-----9------5/2---/9---9------5/2-
5.----------------------------------
6.----------------------------------


(1:00)
1.----------------------------------------------
2.----------------------------------------------
3.----------------------------------------------
4.------------------------------------0-0-0-0-0-
5.----------------------------------------------
6.-0-0-0-0-1--0-0-0-0-1h0--0-0--3-1-0-----------



(1:54)
1.--------------------------------------------------
2.--------------------------------------------------
3.--------------------------------------------------
4.-0-3-2--------------------------------------------
5.-----------------0---------3/2-----------0--------
6.------0-h2---2-2---2---0h2-----0h2---2-2---2--0h2-


(3:12)
1.--------------------------------------------------
2.--------------------------------------------------
3.-7/8-7---4/6-4--3h4h3-----------7/8-7-8-9-8-7-7(8)
4.-------8--------------6-5-------------------------
5.--------------------------6/7\6-------------------
6.--------------------------------------------------


(3:45)
1.----------------------------------------------
2.----------------------------------------------
3.--------9-11(13)(11)-9-11(13)(11)-9-11/--8-8-8
4.-----11---------------------------------------
5.-/11------------------------------------------
6.----------------------------------------------


1.--------------------------------------------------
2.--------------------------------------------------
3.-9-11-8------8-6---------------9-11(13)(11)9-11(13)
4.--------11-9-----------------11-------------------
5.-----------------/4------/11----------------------
6.--------------------5/4---------------------------


1.------------------------------------------------
2.------------------------7-9---------------------
3.-(11)-9-11---8-8-8---8-9-----20(21)-20-18-20(21)
4.------------------------------------------------
5.------------------------------------------------
6.------------------------------------------------


1.--------------------------------------------------
2.--------------------------------------------------
3.-20-18---13(14)(13)(14)(13)(14)(13)(14)(13)h11-11-
4.--------------------------------------------------
5.--------------------------------------------------
6.--------------------------------------------------


1.----------------------------
2.--------16---21(22)21-19-21-
3.-----17---------------------
4.-/18------------------------
5.---------------------------- 
6.--------------------. . . 

Más tablaturas de...Accept.

No hay comentarios:

Publicar un comentario