.

banners

Tablatura fácil de... Juegos a media luz. Medina Azahara.



  Con "Las puertas del cielo" regresaban los cordobeses Medina Azahara al panorama musical, hace cosa ahora de 2 años aproximadamente. Uno de los temas del plástico era este "Juegos a media luz" del que hoy os dejo un momento en tablatura fácil perteneciente al riff de inicio.
  Un saludo.
  TabsFácil.





Juegos a media luz. Medina Azahara.

1.---------------------------------------------
2.---------------------------------------------
3.---------------------------------------------
4.---------------------------------------------
5.-3-5---5-5-5---5-5-5---5-5-5---5-5-5---5-5-5-
6.---------------------------------------------

1.---------------------------------------------
2.---------------------------------------------
3.---------------------------------------------
4.---------------------------------------------
5.-3-5---5-5-5---5-5-5---5-5-5---5-5-5---5-5-5-
6.---------------------------------------------

1.---------------------------------------------
2.---------------------------------------------
3.---------------------------------------------
4.---------------------------------------------
5.-3-5---5-5-5---5-5-5---5-5-5---5-5-5---5-5-5-
6.---------------------------------------------

1.---------------------------------------------
2.---------------------------------------------
3.---------------------------------------------
4.---------------------------------3---5-------
5.-3-5---5-5-5---5-5-5---5-5-5---1---3---------
6.---------------------------------------------



Más tablaturas de...Medina Azahara.

No hay comentarios:

Publicar un comentario en la entrada