.

banners

Tablatura fácil de... If heaven is hell. Tokyo Blade


  
  Todo un clásico del heavy metal en tablaturas fáciles, "If heaven is hell" de Tokyo Blade no podía faltar en esta tu web de canciones para guitarra. Así que, ya sabes disfruta mientras aprendes rememorando aquellos años en los que podíamos dejarnos el pelo largo. Ja, ja.
  Un saludo.
  TabsFácil.







If heaven is hell. Tokyo Blade

1.-----------------------------------------------
2.-----------------------------------------------
3.---2---2----2---------2---0----2--------2----0-
4.-----3--------3-0-------3--------3-0-------3---
5.-5--------5--------3---------3--------1--------
6.-----------------------------------------------

1.-------------------------------3
2.-------------------------------3
3.---2---------2---------2-------0
4.-----3-0-------3-2-------3-2---0
5.-1--------0---------0----------2
6.-------------------------------3


1.-5-6-3-5----3--------------------------------------
2.----------6---4-6-3-4----3-------------------------
3.-----------------------5---3-5-2-3----2------------
4.------------------------------------5---3-5-1-3--1
5.------------------------------------------------5--
6.---------------------------------------------------


1.--------------------------8-----10
2.--------------------------8-----10
3.--------------------------8-----11
4.-------------------------10-----12
5.---3-5-1-3---1-----------10-----12
6.-----------5----3-5-2-----8-----10


(0:22)                (0:27) ¡¡Rock and roll!!
1.-------------------------repetimos 4 veces.
2.---------------------------
3.---------------------------
4.---7------------7---10---9-
5.---5---8---10---5----8---7-
6.-------6----8--------------

“Light, burning in your eyes…
1.-----------------------------------------------
2.-----------------------------------------------
3.-----------------------------------------------
4.-7---7-7---7---7-7---7---7-7---7---7-7---5--5-5
5.-5---5-5---5---5-5---5---5-5---5---5-5---3--3-3
6.-----------------------------------------------


1.-----------------------------------------------
2.-----------------------------------------------
3.-----------------------------------------------
4.-5---5-5---5---5-5---5---5-5---3---3-3---3--3-3
5.-3---3-3---3---3-3---3---3-3---1---1-1---1--1-1



1.-------------------------------------------------
2.-------------------------------------------------
3.-------------------------------------------------
4.-3---3-3---3---3-3---5---5-5---5--5-5---5--5-5--5
5.-1---1-1---1---1-1---3---3-3---3--3-3---3--3-3--3
6.-------------------------------------------------


1.-------------------------------------------------
2.-------------------------------------------------
3.-------------------------------------------------
4.-5-5--3--3-3---3---3-3---3--3-3--3---3-3--5---5-5
5.-3-3--1--1-1---1---1-1---1--1-1--1---1-1--3---3-3
6.-------------------------------------------------


1.----------------------------------------------
2.----------------------------------------------
3.----------------------------------------------
4.-5---5-5---5---5-5---5---5-5---3-3-3-3-3---5-5
5.-3---3-3---3---3-3---3---3-3---1-1-1-1-1---3-3
6.----------------------------------------------

                     “… If heaven is hell…”
1.-----------------|-----------repetimos 2 veces-
2.-----------------|-------------------------------
3.-----------------|--------2--------2-------------
4.-3-3-3-3-3---5-5-|----2-3---0--2-3---2--3-2------
5.-1-1-1-1-1---3-3-|-/5-----------------------5-3-5
6.-----------------|-------------------------------


1.------------------------repetimos 2 veces---
2.--------------------------------------------
3.--------------------------------------------
4.-------------------------------------10---10
5.----5-5-5-5-5---8---10---5-5-5-5-5----8----7
6.----------------6----8----------------------


(1:49)
1.--------------------------------------------
2.-5(6)(5)-5-3--5(6)(5)-5-3--5(6)(5)-5-3------
3.---------------------------------------5-3-2
4.--------------------------------------------
5.--------------------------------------------
6.--------------------------------------------


1.-------------------------------------------
2.----------5(6)(5)-5-6h5h3---5(6)(5)-5-6h5h3
3.-------------------------------------------
4.-5-3-2-------------------------------------
5.-------3-----------------------------------
6.-------------------------------------------


1.------------------------repetimos desde 1:49
2.-5(6)(5)-5----------8(9)(8)(9)--------------
3.------------7-5-7-9-------------------------
4.--------------------------------------------
5.--------------------------------------------
6.--------------------------------------------

(2:12)
1.-----------------12-13-12------------------------
2.----15-13-15--15----------15-13-15---------------
3.-14--------------------------------17-15-14-15-14
4.-------------------------------------------------
5.-------------------------------------------------
6.-------------------------------------------------


1.-----------------------------------------------
2.-----------------------------------------------
3.-12-14-12-10-12-10-9-10-9-7-9---7-5-3-5-3-2-3-2
4.-----------------------------------------------
5.-----------------------------------------------
6.-----------------------------------------------


1.----------------------------------------------
2.----------------------------------------------
3.---2------------------------------------------
4.-5--5-3-5-3-2-3-2--2--------------------------
5.-----------------5---3-5-3-1-3-1--1----------3
6.--------------------------------5--5-3-5-3-1-


1.---------------------------------------------
2.-----------------------6---------------------
3.----------5h7h5---5h7------------------------
4.-3h5h3--7-------7-------------2---2-3-2-3-5-3
5.-------------------------5-3-5--5-----------
6.---------------------------------------------


1.--------------------------------------------
2.---------------------3----3-5--3/5--3-5-6--5
3.---2---2-3-2-3-5-3-5---5--------------------
4.-5---5--------------------------------------
5.--------------------------------------------
6.--------------------------------------------

(2:30)
1.-------------------------------------------------
2.-------------------------------------------------
3.----17-19-18(19)--17-15-14-15-14---14------------
4.-19------------------------------17---17-15-17-15
5.-------------------------------------------------
6.-------------------------------------------------


1.-------------------------------------------------
2.-------------------------------------------------
3.-------------------------------------------------
4.-14-15-14----------------------------------------
5.----------17-15-13-15-13-12-13-12-10-12-10-8-10-8
6.-------------------------------------------------

                    (2:39)
1.--------------------------------------------------
2.-------------------8-10-8-10-13-10-13-15-13-15-17-
3.----------------10--------------------------------
4.--------------------------------------------------
5.-7-8-7---5---8------------------------------------
6.--------------------------------------------------


1.--------------------------------------------------
2.-17(18)---17(18)(17)-15----15---17(18)-----8-10-8-
3.------------------------17--------------10--------
4.--------------------------------------------------
5.--------------------------------------------------
6.--------------------------------------------------


1.-------------------------------
2.-10-13-10-13-15-13-15-17-17(18)
3.-------------------------------
4.-------------------------------
5.-------------------------------
6.-------------------------------

(3:38)
1.--------------------------------------------------
2.--------------------------------------------------
3.---7-9-10---9h10h9h7------------------------------
4.-7-------------------7-8--------------------------
5.--------------------------5-7-8-10---8h10h8h7-----
6.----------------------------------------------8-10

1.---------------------------------------------------
2.---------------------------------------------------
3.---7-9-10---9h10h9h7-------------------------------
4.-7-------------------7-8---------------------------
5.-------------------------5-7-8-10--8h10h8h7--10--12
6.----------------------------------------------8--10

1.---------------
2.---------------
3.---------------
4.---------------
5.---8---10---12-
6.---6----8---10-

1.-----------------------------------------------
2.-5(6)(5)-5-3---5(6)(5)-5-3---5(6)(5)-5-3-------
3.-----------------------------------------5-3-2-
4.-----------------------------------------------
5.-----------------------------------------------
6.-----------------------------------------------

1.--------------------------------------------------
2.--------------------------------------------------
3.--------------------------------------------------
4.----5-3-2-----------------------------------------
5.----------3---7(8)-7-8-5-7(8)-7-8-5---7-8-7-8-10-8
6.--------------------------------------------------



1.------------------------------------------------
2.------------------------------------------------
3.------------------------------7----7-9-7-9-9(10)
4.---------7----7-8-7-8-10-8-10---10--------------
5.-10-8-10---10-----------------------------------
6.------------------------------------------------

1.---------------------------------------------------
2.----13-15-13---------------------------------------
3.-14----------14-12-10-------------------10-10------
4.-----------------------14-12---10-12-14-------12-10
5.---------------------------------------------------
6.---------------------------------------------------

1.--------------------
2.--------------------
3.--------------------
4.-8-10-7-8-7-5-7-5---
5.------------------8-
6.--------------------

 1.----------------------------------------------
2.-5(6)(5)-5-6h5h3---5(6)(5)-5-6h5h3---5(6)(5)-5-
3.-----------------------------------------------
4.-----------------------------------------------
5.-----------------------------------------------
6.-----------------------------------------------


1.-----------------------------------------------
2.-6h5h3----------------5(6)(5)-5-6h5h3---5(6)(5)
3.-------5-3-2-----------------------------------
4.-------------5-3-2-----------------------------
5.-------------------3---------------------------
6.-----------------------------------------------

1.------------------
2.-5-6h5h3----------
3.----------5---7-7-
4.------------------
5.------------------
6.------------------


1.-12(13)(12)-12-13h12h10---12(13)(12)-12-13h12h10
2.------------------------------------------------
3.------------------------------------------------
4.------------------------------------------------
5.------------------------------------------------
6.- ----------------------------------------------


1.12(13)(12)-12-10---------------------12(13)(12)-12
2.-----------------13-11-10-------------------------
3.--------------------------12-10-9-----------------
4.----------------------------------10--------------
5.--------------------------------------------------
6.--------------------------------------------------

1.-13h12h10---12(13)(12)-12-13h12h10-------------
2.------------------------------------13---15-15-
3.-----------------------------------------------
4.-----------------------------------------------
5.-----------------------------------------------
6.-----------------------------------------------

1.-------------------------------------------
2.-22-20-22h20h18---22-20-22h20h18---22-20-18
3.-------------------------------------------
4.-------------------------------------------
5.-------------------------------------------
6.-------------------------------------------


1.---------------------------------------------
2.-----------------------22-20-22h20h18--22-20-
3.-21-19-17------------------------------------
4.----------20-19-17---------------------------
5.-------------------19------------------------
6.---------------------------------------------

1.---------------------
2.-22h20h18------------
3.-----------21---22-22
4.---------------------
5.---------------------
6.---------------------

(5:48)
1.--------------------------------------------------
2.--------------------------------------------------
3.-5--7--9--10---12---9-----------------------------
4.------------------------10--------12---10h12h10h12
5.-----------------------------12-------------------



1.------------------------
2.------------------------
3.------------------------
4.-h10h12h10h12h10h12----7
5.-----------------------5
6.------------------------

Más tablaturas de...Tokio Blade.

No hay comentarios:

Publicar un comentario