.

banners

Tablatura fácil de... Final light. Angra.



  "Final light". Así es como se llamaba el segundo sencillo del último trabajo de la banda brasileña Angra. Una noticia sin duda eclipsada cuando días después era anunciada la llegada a Megadeth de Kiko Loureiro.
  En los comunicados de la banda hacían notoria su alegría y el compromiso del guitarrista con la banda, por lo que los seguidores de esta pedazo de agrupación metalera no deberíamos estar preocupados.
  Desde aquí, os dejo unos momentos en tablatura de ese "Final light" que espero que os guste y disfrutéis.
  Angra en tablaturas fáciles.
  Un saludo.
  TabsFácil.




Final light. Angra.


1.-----------------------------------
2.-----------------------------------
3.-----------------------------------
4.---------4---5---2---------------4-
5.---3-2-0-2---3---0---3-2-0-3-2-0-2-
6.-----------------------------------

1.-----------------------------------

2.-----------------------------------
3.-----------------------------------
4.--5---2----------------------------
5.--3---0--//--2-2--2--2-2--2-2-2-2--
6.-----------------------------------


1.-----------------------------------
2.-----------------------------------
3.-----------------------------------
4.----------0h2h0h2h0----------------
5.---2--2-2-----------2-2--2--2-2----
6.-----------------------------------


1.---------------------------------------
2.---------------------------------------
3.---------------------------------------
4.-------------------0h2h0h2h0-----------
5.--2-2-3-3--3--3-3-----------2-2--2--2-2
6.-----------------------------------...

Más tablaturas de... Angra.

No hay comentarios:

Publicar un comentario en la entrada