.

banners

Tablatura fácil de... Borraré tu nombre. Zenobia.



   Una de las bandas nacionales con más progresión en los últimos años, y la más buscada en tablaturas fáciles. Sí, estoy hablando de Zenobia, la banda riojana que cuenta en sus filas con nada más y nada menos que con el pirata de las seis cuerdas, Víctor De Andrés. 
   No podía faltar, en este caso repetir, entrada y momento en tablatura fácil, en esta ocasión le toca el turno a "Borraré tu nombre" y su riff inicial que espero como siempre, que os guste y disfrutéis.
  Un saludo.
  TabsFácil.





Borraré tu nombre. Zenobia.

1.------------------------------------------|
2.-------------------(HH)-------------------|
3.---------------------5--------------------|
4.----5--8-7---5--8-7-------5--8-7---5--8-7-|
5.-----------8------------8--------8--------|
6.-//---------------------------------------|

1.------------------------------------------|
2.-(HH)-------------------(HH)--------------|
3.--5-----------------------5---------------|
4.----------5--8-7---5--8-7------5--8-7-----|
5.------8-8--------8-----------8---------8--|
6.------------------------------------------|

1.----------------------|
2.----------------------|
3.----------------------|
4.-5--------------------|
5.----3-3--1-3-1------5-|
6.---------------3-1--3-...


Más tablaturas de... Zenobia.

No hay comentarios:

Publicar un comentario